Misc Unsigned Bands - Vertical Leap - Typical You Chords & Tabs

 

Vertical Leap - Typical You Chords & Tabs

Misc Unsigned Bands Chords & Tabs

Version: 1 Type: Tab 0 ratings
1 star 2 stars 3 stars 4 stars 5 stars
comments

Vertical Leap - Typical You Tab

Tabbed by Colin Baillio

Vertical Leap is a band from New Mexico. Their site is:
http://www.webspawner.com/users/qwertcb/index.html

This is a very fast paced song.  Get the lyrics at their site.


                               Typical You

Intro 1
1-------------------------------------------------
2-------------------------------------------------
3-------------------------------------------------
4-------------------------------------------------
5-----6-8-6------6-8-6------6-8-6------6-8-6------
6---9-------9--4-------9--6-------9--2------------ X2

Intro 2
1------------------------------------------------
2------------------------------------------------
3------------------------------------------------
4---6-6------6-6------6-6------------------------
5---4-4-6-8--4-4-6-4--4-4-6-8--4-4-6-8-6-4-------
6-------4-6------4-2------4-6-------------------- X2

Verse 1
1------------------------------------------
2------------------------------------------
3------------------------------------------
4---6~-------------------------------------
5---4~--6~--8~--4~-------------------------
6-------4~--6~--2~-------------------------

Pre-Chorus
1------------------------------------------
2------------------------------------------
3------------------------------------------
4---6~-------------------------------------
5---4~--6~--8~--4--------------------------
6-------4~--6~--2--------------------------

Chorus
1--------------------------------------------------------
2--------------------------------------------------------
3--------------------------------------------------------
4---6-6-6-6----------------------------------------------
5---4-4-4-4-x2--6-6-6-6-----8-8-8-8-----4-4-4-4----------
6---------------4-4-4-4-X2--6-6-6-6-X2--2-2-2-2-X2------- X2
[ Tab from: http://www.guitartabs.cc/tabs/m/misc_unsigned_bands/vertical_leap_typical_you_tab.html ]
Verse 2
1--------------------------------------------------------
2--------------------------------------------------------
3--------------------------------------------------------
4---6-6-6-6----------------------------------------------
5---4-4-4-4-x2--6-6-6-6-----8-8-8-8-----4-4-4-4----------
6---------------4-4-4-4-X2--6-6-6-6-X2--2-2-2-2-X2------- X4

Verse 3
1--------------------------------------------------------
2--------------------------------------------------------
3--------------------------------------------------------
4---6-6-6-6----------------------------------------------
5---4-4-4-4-x2--6-6-6-6-----8-8-8-8-----4-4-4-4----------
6---------------4-4-4-4-X2--6-6-6-6-X2--2-2-2-2-X2------- 

Verse 4
1------------------------------------------
2------------------------------------------
3------------------------------------------
4---6~-------------------------------------
5---4~--6~--8~--4~-------------------------
6-------4~--6~--2~------------------------- X2

Bridge
1--------------------------------------------------------
2--------------------------------------------------------
3--------------------------------------------------------
4---6-6-6-6----------------------------------------------
5---4-4-4-4-x2--6-6-6-6-----8-8-8-8-----4-4-4-4----------
6---------------4-4-4-4-X2--6-6-6-6-X2--2-2-2-2-X2------- X2

Solo
1--------------------------------------
2--------------------------------------
3--------------------------------------
4--------------------------------------
5---6-8-6---6-8-6---6-8-6---6-6-8-6~---
6---------9-------9-------9------------ X4

Intro 1
Intro 2
Verse 1
Intro 2
Verse 2
Pre-Chorus
Chorus
Verse 3
Pre-Chorus
Chorus
Verse 4
Chorus 
Intro 1
Intro 2
Verse 1
Bridge
Intro 1
Bass Solo
Solo
Intro 1
Intro 2
Intro 1
Intro 1
Comments