Misc Unsigned Bands - Two For Flinching - Written In Blood Chords & Tabs

 

Two For Flinching - Written In Blood Chords & Tabs

Misc Unsigned Bands Chords & Tabs

Version: 1 Type: Tab 0 ratings
1 star 2 stars 3 stars 4 stars 5 stars
comments

Two For Flinching - Written In Blood Tab

   
band- two for flinching
song- writtein in blood

tuning: C# G# C# F# A# D#


Intro Gtr.1    4x
|------------------------------------------------------------------------------
|------------------------------------------------------------------------------
|----10-10-9-9-----------10-10-9-9-----------10-10-9-9----------10-10-9-9------
|-7-7---------10-10--7-7---------10-10--7-7-----------10-10--7-7---------10-10-
|------------------------------------------------------------------------------
|------------------------------------------------------------------------------
   pm......
 -----------------------------|
 -----------------------------|
 -----------------------------|
 --12-12--9-9--10-10--8-8-----|
 -----------------------------|
 -----------------------------|


Intro Gtr.2    1x
|----------|-------------------------------------------------------------------|
|----------|-------------------------------------------------------------------|
|----------|---volumn-swell<----------------------------------pick scrape------|
|----rest--|----------7-------------------7----------------------\\\-----------|
|----------|----------7-------------------7-----------------------\\\----------|
|----------|----------7-------------------7------------------------\\\---------|



Riff 1 Gtr.1 & Gtr.2    4x
|---------------------------------------------------------------------
|------10-10-9-9-------------10-10-9-9-------------10-10-9-9----------
|- 7-7-10-10-9-9-10-10---7-7-10-10-9-9-10-10---7-7-10-10-9-9-10-10----
|--7-7-8--8--7-7-10-10---7-7-8--8--7-7-10-10---7-7-8--8--7-7-10-10----
|--7-7-----------10-10---7-7-----------10-10---7-7-----------10-10----

 -----------------------------|
 -----------------------------|
 -----------------------------|
 --12-12--9-9--10-10--8-8-----|
 --12-12--9-9--10-10--8-8-----|
 --12-12--9-9--10-10--8-8-----|



Verse Gtr.1    2x
|-------------------------------------------------------------------------
|-------------------------------------------------------------------------
|-----------10-10-10-9-9-9----------10-10--10-10--10-10-10-9-9-9----------
|--7-7--7-7---------------10-10-10--10-10--10-10----------------10-10-10--
|--7-7--7-7-------------------------8--8---8---8--------------------------
|--7-7--7-7---------------------------------------------------------------

 ------------------------------------------------------------------------------|
 ------------------------------------------------------------------------------|
 --9-9--9-9--10-10-10-9-9-9------------------------10-10-10-9-9-9--------------|
 --9-9--9-9----------------10-10-10--10-10--10-10----------------10-10-10------|
 --7-7--7-7--------------------------10-10--10-10------------------------------|
 ------------------------------------10-10--10-10------------------------------|

[ Tab from: http://www.guitartabs.cc/tabs/m/misc_unsigned_bands/two_for_flinching_written_in_blood_tab.html ]
Verse Gtr.2    2x
|---------------------------------------------------------------------------
|---------------------------------------------------------------------------
|-------------------------------10-10--10-10--10-1010--10-1010-10-101010----
|--7-7--7-7--7-77--7-77--7-777--10-10--10-10--10-1010--10-1010-10-101010----
|--7-7--7-7--7-77--7-77--7-777--8--8---8--8---8--8-8---8--8-8--8--8-8-8-----
|--7-7--7-7--7-77--7-77--7-777----------------------------------------------
pm             ..    ..    ...                   . .      . .     . . .

 -----------------------------------------------------------------------------|
 -----------------------------------------------------------------------------|
 --9-9--9-9----9-99--9-99--9-999----------------------------------------------|
 --9-9--9-9----9-99--9-99--9-999---10-10--10-10--10-1010--10-1010--10-101010--|
 --7-7--7-7----7-77--7-77--7-777---10-10--10-10--10-1010--10-1010--10-101010--|
 ----------------------------------10-10--10-10--10-1010--10-1010--10-101010--|
                 ..    ..    ...                    . .       . .      . . .  



Breakdown Gtr.2
|---------------------------------------------------------------|
|---------0----------------0------------0-------------0---------|
|------0----0-----------0----0--------0----0--------0----0------|
|---10--10----10-----10--10----10---9--9----9-----9--9----9-----|
|--8------------8---8------------8\7----------7---7--------7/---|
|---------------------------------------------------------------|



Ending Gtr.1 & Gtr.2
    2x
|--------------------------------------------------------------|
|--------------------------------------------------------------|
|--------------------------------------------------------------|
|------------------5555555555----4444444444--------------------|
|----0000000000----3333333333----2222222222----5555555555------|
|----0000000000--------------------------------5555555555------|


    2x
|-----------------------------------------------------------------------------|
|-----------------------------------------------------------------------------|
|--------------------5555555555555555--4444444444444444-----------------------|
|--0000000000000000--5555555555555555--4444444444444444--5555555555555555-----|
|--0000000000000000--3333333333333333--2222222222222222--5555555555555555-----|
|--0000000000000000--------------------------------------5555555555555555-----|


    2x
|---------------------------------------------------------------------------
|---------------------------------------------------------------------------
|---------------------------------------------------------------------------
|------------------------------------55555555555555555555555555555555-------
|--00000000000000000000000000000000--33333333333333333333333333333333-------
|--00000000000000000000000000000000-----------------------------------------
 pm throughout
---------------------------------------------------------------------------|
---------------------------------------------------------------------------|
---------------------------------------------------------------------------|
--44444444444444444444444444444444-----------------------------------------|
--22222222222222222222222222222222--55555555555555555555555555555555-------|
------------------------------------55555555555555555555555555555555-------|


Structure:
intro gtr.1(4x)/intro gtr.1 (1x)
riff 1 gtr.1 & gtr. 2 (4x)
verse (2x)
riff 1(4x)
verse (2x)
riff 1 (4x)   *[2nd time gtr.2 uses auto wah and plays single notes]*
breakdown gtr.2 (8x)
end (2x)
      (2x)
      (2x)
*hold out last note*

http://www.geocities.com/forflinching
Comments