Misc Unsigned Bands - Too Hei For Eis - Mental Disfunction Chords & Tabs

 

Too Hei For Eis - Mental Disfunction Chords & Tabs

Misc Unsigned Bands Chords & Tabs

Version: 1 Type: Tab 0 ratings
1 star 2 stars 3 stars 4 stars 5 stars
comments

Too Hei For Eis - Mental Disfunction Tab

   
Too Heiß For Eis - King Of The Heros

group: Too heiß for eis, it is a new group that really exists because it is my own group
but it's really fun to play. I hope you enjoy, than I can put other songs of us here.
This is allready the third song of this group I post here, have fun!
site: http://groups.msn.com/jussebrothers
name: Ewaldinho

intro (=chorus) : 
e:--------------------------------------|
B:--------------------------------------|
G:555-9-999999999999-999-5-555555555555-|
D:555-9-999999999999-999-5-555555555555-|
A:333-7-777777777777-777-3-333333333333-|
E:--------------------------------------|

verse: 
e:--------------------------------------|
B:--------------------------------------|
G:4-7-9-9999999999----7-4-5-5555555555--|
D:4-7-9-9999999999----7-4-5-5555555555--|
A:2-5-7-7777777777-*3-5-2-3-3333333333--|
E:--------------------------------------|
       |palm muted|        |palm muted|
[ Tab from: http://www.guitartabs.cc/tabs/m/misc_unsigned_bands/too_hei_for_eis_mental_disfunction_tab.html ]
chorus
verse
chorus
chorus: everything palm muted
chorus

solo:
e:-------------------...---------------------------------------|
B:-------------------...---------------------------------------|
G:4xxxxxxxxxxxxxxxxxx...-2~~-----------------------------------|
D:4xxxxxxxxxxxxxxxxxx...-2~~/1414141414141414-1616161616161616-|
A:2xxxxxxxxxxxxxxxxxx...-0~~/1212121212121212-1414141414141414-|
E:-------------------...---------------------------------------|
 |------drum solo------|

e:-----------------------------------------------------------------------2-|
B:-----------------------------------------------------------------------2-|
G:---------14----------16-14-------------------16-14-16-14-16-14-16b19~~~2-|
D:14-16-17----16-14-17-------16-14-16-14-17-14---------------------------2-|
A:-----------------------------------------------------------------------0-|
E:-----------------------------------------------------------------------x-|
Comments