Misc Unsigned Bands - Tom Astronomy - Drycloud Chords & Tabs

 

Tom Astronomy - Drycloud Chords & Tabs

Misc Unsigned Bands Chords & Tabs

Version: 1 Type: Tab 0 ratings
1 star 2 stars 3 stars 4 stars 5 stars
comments

Tom Astronomy - Drycloud Tab

Intro:

e-------------------------------------------------------------------|
a-------------------------------------------------------------------|
d--------7-----7----------------------------4----4--------4---4-----|
g-----5-----5------5-------7---7----------2----2----2---2---2---2---|
b--7------7------7-------5----5----5----3----3----3---3---3---3-----|
e----------------------7-----7---7----------------------------------|

Then same thing but strum instead of pick and palm muted (Figure out the strumming 
pattern and how much it is)
[ Tab from: http://www.guitartabs.cc/tabs/m/misc_unsigned_bands/tom_astronomy_drycloud_tab.html ]
Intro 2:
e-----------------------------------------------------------------------|
a----------------------(Then right before the break down)---------------|
d---7--------4--------------7----7-------------------------------4-4-4--|
g---5----7---2------------5----5---5----7---7--------------------2-2-2--|
b---7----5---3----------7----7---7----5---5---5---3-3-3-3-3-3-3-3-3-3---|
e--------7---------------------------7---7---7--------------------------|


Breakdown:
e-----------------------------------------------------------------|
a-----------------------------------------------------------------|
d----3-3---3-3----2-2--2-2----------------------------------------|
g----2-2---2-2----1-1--1-1-------2--------------------------------|
b----3-3---3-3----2-2--2-2-------2--------------------------------|
e--------------------------------0x16-----------------------------|



Order of parts:

intro
Intro 2
breakdown
intro
Breakdown
Comments