Misc Unsigned Bands - Tightrope - Icaris Chords & Tabs

 

Tightrope - Icaris Chords & Tabs

Misc Unsigned Bands Chords & Tabs

Version: 1 Type: Bass Tab 0 ratings
1 star 2 stars 3 stars 4 stars 5 stars
comments

Tightrope - Icaris Bass Tab

   
-------------------------------------------------------------------------------
			     SONG NAME - Band Name
-------------------------------------------------------------------------------

Tabbed By : Mike Antoch
e-mail: Sodaman34@aol.com

Tuning: drop c (c,G,c,F)

This is a local band. most of the members go to my school.
ok believe me this whole song is correct because the bassist for tightrope showed me how 
do it.

intro
G|---------------------------------------------------------------------------|
D|---------------------------------------------------------------------------|
A|--22-33-00-----22-33-00----------------------------------------------------|
E|22-----------22------------------------------------------------------------|

main riff (x4)
G|---------------------------------------------------------------------------|
D|---------------------------------------------------------------------------|
A|--------222-333-0000-------------------------------------------------------|
E|222222---------------223223------------------------------------------------|

verses
G|---------------------------------------------------------------------------|
D|---------------------------------------------------------------------------|
A|---2-3--0-3-2------2-3-0-3-2------------2222-3333-0000-3333-2222-----------|
E|2---------------2---------------22222222-----------------------------------|
[ Tab from: http://www.guitartabs.cc/tabs/m/misc_unsigned_bands/tightrope_icaris_btab.html ]
G|---------------------------------------------------------------------------|
D|---------------------------------------------------------------------------|
A|--------2222-3333-00000000-3333-2222---------------------------------------|
E|22222222-------------------------------------------------------------------|

Chorus (x4)
G|---------------------------------------------------------------------------|
D|---------------------------------------------------------------------------|
A|-----222-333-00000---------------------------------------------------------|
E|22222--------------223223--------------------------------------------------|

after 2nd and 3rd chorus (u figure out how many times)
G|---------------------------------------------------------------------------|
D|---------------------------------------------------------------------------|
A|---------------------------------------------------------------------------|
E|223223223223223223223223---------------------------------------------------|

end the song with feedback on the second fret i think (i dont think its open)

thats it. this song is easy as hell. the guitar is a little harder cause they play 
on their high a & d strings. easy song either way. have fun. THIS IS 100% CORRECT. THE 
FROM THE BAND SHOWED ME HOW TO DO IT.
peace.

| /  slide up
| \  slide down
| h  hammer-on
| p  pull-off
| ~  vibrato
| +  harmonic
| x  Mute note
=============================================================================
Comments