Misc Unsigned Bands - This Side Down - The End Is Far Away Chords & Tabs

 

This Side Down - The End Is Far Away Chords & Tabs

Misc Unsigned Bands Chords & Tabs

Version: 1 Type: Tab 0 ratings
1 star 2 stars 3 stars 4 stars 5 stars
comments

This Side Down - The End Is Far Away Tab

-------------------------------------------------------------
tHIS sIDE dOWN - the end is far away   www.ultimate-guitar.com
--------------------------------------------------------------
 This is a brand new band I justheard

I just heard this song and it sounded so cool I had to tab it.
I did my best so dont rate me to bad. Here it goes.

Tabbing:standard
alot of distortion
 
This is the intro he plays this kind of slow
e|-------------------------------------------------------|--|
B|-------------------------------------------------------|--|
G|-------------------------------------------------------|--|
D|--4-4-4-4-4-4-4-4--2-2-2-2-2-2-2-2--4-4-4-4--1~--------|x2|
A|--4-4-4-4-4-4-4-4--2-2-2-2-2-2-2-2--4-4-4-4--1~--------|--|
E|--2-2-2-2-2-2-2-2--0-0-0-0-0-0-0-0--0-0-0-0--0~--------|--|

Then it goes into the verse 
e|-------------------------------------------------------|--|
B|-------------------------------------------------------|--|
G|--555555555555--777777777777---------------------------|--|
D|--555555555555--XXXXXXXXXXXX--7-7-7/9\5~---------------|x4|
A|--333333333333--555555555555--7-7-7/9\5~---------------|--|
E|------------------------------5-5-5/7\3~---------------|--|

Here is the fill 1
D|-----------------|
A|-----------------|
E|--3\1-0----------|
[ Tab from: http://www.guitartabs.cc/tabs/m/misc_unsigned_bands/this_side_down_the_end_is_far_away_tab.html ]
Then the chorus
e|-------------------------------------------------------|--|
B|-------------------------------------------------------|--|
G|------------------777777777777--777777777777--7~-------|--|
D|--77-77-77-77-77--777777777777--777777777777--7~-------|x2|
A|--77-77-77-77-77--555555555555--444444444444--0~-------|--|
E|--55-55-55-55-55---------------------------------------|--|


Then you do the verse again x2

Fill 2
D|----------2-|
A|-------3-0--|
E|--5\3-0-----|

Then the bridge  *=pm
e|-------------------------------------------------------|--|
B|-------------------------------------------------------|--|
G|-----------------------------------1111111111----------|--|
D|--7777777777-3333333333-5555555555-1111111111----------|x2|
A|--7777777777-3333333333-5555555555-0000000000----------|--|
E|--5555555555-0000000000-3333333333---------------------|--|
     *********  *********  *********  *********

then back to the chorus x2

then the outro
e|-------------------------------------------------------|--|
B|-------------------------------------------------------|--|
G|--8------3-------4/6-----------------------------------|--|
D|--8--x15-3--x15--4/6-----------------------------------|x2|
A|--6------0-------2/4-----------------------------------|--|
E|-------------------------------------------------------|--|

end on
D|--3~----|
A|--3~----|
E|--0~----|



| /     slide up  |
| \     slide down|
| ~     vibrato   |
| *     palm mute |
| X     nute note |
============================================================
Comments