Misc Unsigned Bands - The Soe - Love Song For Punks Chords & Tabs

 

The Soe - Love Song For Punks Chords & Tabs

Misc Unsigned Bands Chords & Tabs

Version: 1 Type: Bass Tab 0 ratings
1 star 2 stars 3 stars 4 stars 5 stars
comments

The Soe - Love Song For Punks Bass Tab

chorus
-------------------------|
-------------------------|
6\5-55----------3-3-3-3--|
-------5-5-3-333---------|
on the last time in the chorus pause then slide on the e string
(th bass comes in after the guitar plays its riff one time)
[ Tab from: http://www.guitartabs.cc/tabs/m/misc_unsigned_bands/the_soe_love_song_for_punks_btab.html ]
another part used for the chorus
-------------------------|
-------------------------|
-5-55-----6-5-4-3-3-3-3--|
-----55-3----------------|
verse
-------------------------------|
-------------------------------|
---5-----8---------------------|
-3--3--6--6-5-3-1-1-1----------|
Comments