Misc Unsigned Bands - The Ruffcutts - So Bad Chords & Tabs

 

The Ruffcutts - So Bad Chords & Tabs

Misc Unsigned Bands Chords & Tabs

Version: 1 Type: Bass Tab

The Ruffcutts - So Bad Bass Tab

so bad - the ruffcutts


           
intro

E|10-10--------------------------------------------------------|
A|-----9-9-10-10-11-11-12-12-12-12-12-12-12-12-----------------|
D|-------------------------------------------------------------|
G|-------------------------------------------------------------|

verse 1

E|10----------------10-----------------------------------------|
A|---9-12------12-9---9-12---12------12--12--------------------|
D|-------9-12-9------------9----12-9---9-----------------------|
G|-------------------------------------------------------------|

E|-------------------------------------------------------------|
A|10-----------------------------------------------------------|
D|---9-12------------12-9-12-----------------------------------|
G|-------9-12-9-12-9-------------------------------------------|   

E|10-----------------------------------------------------------|
A|--9-12--12----------12-9----12----------10-------------------|
D|-------9---12-9-12-9-----------11-14-11----9-12-9------------|
G|-------------------------------------------------------------|

E|10-10--------------------------------------------------------| 
A|------9-9-10-10-11-11-12-12-12-12-12-12-12-12----------------|
D|-------------------------------------------------------------|
G|-------------------------------------------------------------|


verse 2

E|10----------------10-----------------------------------------|
A|---9-12------12-9---9-12---12------12--12--------------------|
D|-------9-12-9------------9----12-9---9-----------------------|
G|-------------------------------------------------------------|
[ Tab from: http://www.guitartabs.cc/tabs/m/misc_unsigned_bands/the_ruffcutts_so_bad_btab.html ]
E|-------------------------------------------------------------|
A|10-----------------------------------------------------------|
D|---9-12------------12-9-12-----------------------------------|
G|-------9-12-9-12-9-------------------------------------------|   

E|10-----------------------------------------------------------|
A|--9-12--12----------12-9----12----------10-------------------|
D|-------9---12-9-12-9-----------11-14-11----9-12-9------------|
G|-------------------------------------------------------------|

E|10-10--------------------------------------------------------| 
A|------9-9-10-10-11-11-12-h9-h10-h11-h12----------------------|
D|-------------------------------------------------------------|
G|-------------------------------------------------------------|

bridge

E|----------------------------10-------------------------------|
A|10-----------------------------9-12-------------12-9-12------|
D|---9-12------------12-9-12----------9-12-9-12-9--------------|
G|-------9-12-9-12-9-------------------------------------------| 

E|----------------------------10-------------------------------|
A|10-----------------------------9-12-------------12-9-12------|
D|---9-12------------12-9-12----------9-12-9-12-9--------------|
G|-------9-12-9-12-9-------------------------------------------| 

E|10-----------------------------------------------------------|
A|--9-12--12----------12-9----12----------10-------------------|
D|-------9---12-9-12-9-----------11-14-11----9-12-9------------|
G|-------------------------------------------------------------|

E|10-10--------------------------------------------------------| 
A|------9-9-10-10-11-11-12-h9-h10-h11-h12----------------------|
D|-------------------------------------------------------------|
G|-------------------------------------------------------------|

ending

E|-10-10----------------------------12-------------------------|
A|-------9-9-10-10-11-11-12------------------------------------| 
D|--------------------------9-11-12-12-------------------------|
G|-------------------------------------------------------------|




www.theruffcutts.co.uk