Misc Unsigned Bands - The Remo Stevens Movement - A Stomachs Desperation Chords & Tabs

 

The Remo Stevens Movement - A Stomachs Desperation Chords & Tabs

Misc Unsigned Bands Chords & Tabs

Version: 1 Type: Bass Tab

The Remo Stevens Movement - A Stomachs Desperation Bass Tab

INTRO

G-12h---12-12-12-12-10-10------10--12-12-12-12-10-10-----10-12h--|
D------------------------12-12----------------------12-12--------|
A----------------------------------------------------------------|
E----------------------------------------------------------------|


VERSE 1
[ Tab from: http://www.guitartabs.cc/tabs/m/misc_unsigned_bands/the_remo_stevens_movement_a_stomachs_desperation_btab.html ]
G--------------------|
D--------------------|
A-7777---------------|
E-----4444-5555-7777-|


CHORUS

G---------------|
D---------------|
A-7777-55----5--|
E---------77----|


VERSE 2 (same as first)
(on 2nd time play this...)
G------------------|
D------------------|
A-7777-------------|
E-----4444-55555---|