Misc Unsigned Bands - The New Age - Seeing Through Chords & Tabs

 

The New Age - Seeing Through Chords & Tabs

Misc Unsigned Bands Chords & Tabs

Version: 1 Type: Tab 0 ratings
1 star 2 stars 3 stars 4 stars 5 stars
comments

The New Age - Seeing Through Tab

URL of the Official page: http://www.freewebs.com/thenewagehomepage
Town: Walkerton, Ontario, Canada N0G 2V0
Members: Marc Dobson, Nick Lamont...right now we need a drummer, but we do good
without one...but we'd sound better with one! :)

Tune To Drop C.

Intro:

E|-------------------------------------|
B|-------------------------------------|
G|-------------------------------------|
D|---9---9---9---9----7---7----5----0--|X6
A|--9-9-9-9-9-9-9-9--7-7-7-7--5-5--0-0-|
E|-9---9---9---9----7---7----5----0----|

Ver. 1:
[ Tab from: http://www.guitartabs.cc/tabs/m/misc_unsigned_bands/the_new_age_seeing_through_tab.html ]
E|----------------------|----------------------|
B|----------------------|----------------------|
G|-6-6-6-6-6---9--9--9--|--2-2-2-2-2-2--4-4-4--|
D|-7-7-7-7-7--10-10-10--|--3-3-3-3-3-3--5-5-5--|
A|-7-7-7-7-7--10-10-10--|--3-3-3-3-3-3--5-5-5--|
E|----------------------|----------------------|

Chorus:

E|----------------------|
B|----------------------|
G|----------------------|
D|-9-9-9-9--9-9-9--7--5-|X4
A|-7-7-7-7--7-7-7--5--3-|
E|----------------------|
   pm..pm.
Ver. 2:

E|----------------------|
B|----------------------|
G|----------------------|
D|--7-10--3-1-5---------|X8
A|--7-10--3-1-5---------|
E|--7-10--3-1-5---------|

Chorus:

E|----------------------|
B|----------------------|
G|----------------------|
D|-9-9-9-9--9-9-9--7--5-|X4
A|-7-7-7-7--7-7-7--5--3-|
E|----------------------|
   pm..pm.

AND THATS THAT!:D
You people should download our songs. I think there pretty good for us.
Oh and don't bother me if u don't know how the beat goes...If you want to know,
contact me at Dobby_84@hotmail.com Thank-You!
Comments