Misc Unsigned Bands - The Eustasy - Aids Chords & Tabs

 

The Eustasy - Aids Chords & Tabs

Misc Unsigned Bands Chords & Tabs

Version: 1 Type: Bass Tab 0 ratings
1 star 2 stars 3 stars 4 stars 5 stars
comments

The Eustasy - Aids Bass Tab

The Eustasy
AIDS

the eustasy is a newly formed band with the AIDS song being a contribution to general
AIDS day solidarity events all over the world.


MAIN RIFF/BRIDGE/VERSE/OUTRO
---------------------------------------------------------------------------------------------------|
---------------------------------------------------------------------------------------------------|
-5--5--5--5--5--5--5/7--------------------------------3--3--3--3/5---------------------------------|
----------------------------------5--5--5--5--5--5--5----------------------3--3--3--3--3--3--3--3--|
[ Tab from: http://www.guitartabs.cc/tabs/m/misc_unsigned_bands/the_eustasy_aids_btab.html ]
CHORUS
---------------------------------------------------------------------------------------------------|
---------------------------------------------------------------------------------------------------|
--5--5--5--5--5--5------3--3--3--------------------------------------------------------------------|
--------------------------------------------------------------------5--5--5--5--5--5------3--3--3--|

--------------------------------------------------------------------------------------|
--------------------------------------------------------------------------------------|
--5--5--5--5--5--5------3--3--3-------------------------------------------------------|
--------------------------------------------------------------------5--5--5--5--5--5--|

ORDER:
INTRO
MAIN RIFF
VERSE
BRIDGE
VERSE
MAIN RIFF
CHORUS
MAIN RIFF
VERSE
OUTRO
Comments