Misc Unsigned Bands - The Dissonance - Kirstys A Psycho Chords & Tabs

 

The Dissonance - Kirstys A Psycho Chords & Tabs

Misc Unsigned Bands Chords & Tabs

Version: 1 Type: Bass Tab

The Dissonance - Kirstys A Psycho Bass Tab

   
This song rocks! Sure we are the dissonance, but we sure know how to make music!

INTRO
g|00000000----------------------------54--|
d|--------00000000-22222222---------------|
a|-------------------------33333333-------|
e|----------------------------------------|
[ Tab from: http://www.guitartabs.cc/tabs/m/misc_unsigned_bands/the_dissonance_kirstys_a_psycho_btab.html ]
g|0000-42------42------42------54-|
d|--------0000----2222----3333----| repeat two more times with guitar
a|--------------------------------|
e|--------------------------------|

VERSE
g|0-0-------------|
d|----0-0-2-2-3-3-|    4x
a|----------------|
e|----------------|

g|54-|
d|---|
a|---|
e|---|

Chorus:
g|0000-42------42------42------54-|
d|--------0000----2222----3333----| 2x
a|--------------------------------|
e|--------------------------------|