Misc Unsigned Bands - The Darian Band - The Umbra Chords & Tabs

 

The Darian Band - The Umbra Chords & Tabs

Misc Unsigned Bands Chords & Tabs

Version: 1 Type: Tab 0 ratings
1 star 2 stars 3 stars 4 stars 5 stars
comments

The Darian Band - The Umbra Tab

   
Title: The Umbra
Artist: The Darian Band
Tabbed by:Darian
Email:scotty__13@hotmail.com
Tuning:Standard(EADGBe)
Guitar 1: Distortion

Intro
(palm mute)
E |----------------------------------------------------------|
B |----------------------------------------------------------|
G |--9-9--9-9-9-9--------------------------------------------|
D |--9-9--9-9-9-9--9-9--9-9-9-9--7-7--7-7-7-7--4-4--4-4-4-4--|
A |--7-7--7-7-7-7--9-9--9-9-9-9--7-7--7-7-7-7--4-4--4-4-4-4--|
E |----------------7-7--7-7-7-7--5-5--5-5-5-5--2-2--2-2-2-2--|

then
E |--------------------------------------------------------------------|
B |--------------------------------------------------------------------|
G |--------------------------------------------------------------------|
D |-------4--4-----4-------7--7-----7-------6--6----6-------9--9-----9-|
A |---------4--4-------------7--7-------------6--6------------9--9-----|
E |--2-2---------2----5-5---------5----4-4--------4----7-7---------7---|

Verse
E |---------------------------------------------------------|
B |---------------------------------------------------------|
G |--6-6-6-6-6-6--8-8-8-8-8-8-------------------------------|
D |--6-6-6-6-6-6--8-8-8-8-8-8--8-8-8-8-8-8--3-3-3--4-4-4-4--|
A |--4-4-4-4-4-4--6-6-6-6-6-6--8-8-8-8-8-8--3-3-3--4-4-4-4--|
E |----------------------------6-6-6-6-6-6--1-1-1--2-2-2-2--|
PM   X X   X      X X   X      X X   X      X X    X X   X

Chorus
E |----------------------------------------------------------|
B |----------------------------------------------------------|
G |--9-9--9-9-9-9--------------------------------------------|x2 then
D |--9-9--9-9-9-9--9-9--9-9-9-9--7-7--7-7-7-7--4-4--4-4-4-4--|
A |--7-7--7-7-7-7--9-9--9-9-9-9--7-7--7-7-7-7--4-4--4-4-4-4--|
E |----------------7-7--7-7-7-7--5-5--5-5-5-5--2-2--2-2-2-2--|
[ Tab from: http://www.guitartabs.cc/tabs/m/misc_unsigned_bands/the_darian_band_the_umbra_tab.html ]
E |----------------------------------------------------------|
B |----------------------------------------------------------|
G |--9-9--9-9-9-9--------------------------------------------|
D |--9-9--9-9-9-9--9-9--9-9-9-9--4-4--4-4-4-4--7-7--7-7-7-7--|
A |--7-7--7-7-7-7--9-9--9-9-9-9--4-4--4-4-4-4--7-7--7-7-7-7--|
E |----------------7-7--7-7-7-7--2-2--2-2-2-2--5-5--5-5-5-5--|

then
E |-----------------------------------------------------------|
B |-----------------------------------------------------------|
G |-----------------------------------------------------------|
D |--1-1--x-x-x--8-8-8-8-8-8--10-10-10-10-10-10--8-8-8-8-8-8--|
A |--1-1--x-x-x--8-8-8-8-8-8--10-10-10-10-10-10--8-8-8-8-8-8--|
E |--3-3--x-x-x--6-6-6-6-6-6---8--8--8--8--8--8--6-6-6-6-6-6--|

Bridge
E |------------------------------------------------------|
B |------------------------------------------------------|
G |---------------5-5-5-5-5-5---------------3-3-3-3-3-3--| 
D |--5-5-5-5-5-5--5-5-5-5-5-5--7-7-7-7-7-7--3-3-3-3-3-3--| 
A |--5-5-5-5-5-5--3-3-3-3-3-3--7-7-7-7-7-7--1-1-1-1-1-1--|
E |--3-3-3-3-3-3---------------5-5-5-5-5-5---------------|

E |------------------------------------|
B |------------------------------------|
G |-------------------5-5-5-5-5-5-5-5--| x3 then
D |--5-5-5-5-5-5-5-5--5-5-5-5-5-5-5-5--|
A |--5-5-5-5-5-5-5-5--3-3-3-3-3-3-3-3--|
E |--3-3-3-3-3-3-3-3-------------------|

E |------------------------------------|
B |------------------------------------|
G |-------------------7-7-7-7-7-7-7-7--|
D |--7-7-7-7-7-7-7-7--7-7-7-7-7-7-7-7--|
A |--7-7-7-7-7-7-7-7--5-5-5-5-5-5-5-5--|
E |--5-5-5-5-5-5-5-5-------------------|

Outro
E |-----------------------------------|
B |-----------------------------------|
G |--9--9-----------------------------|
D |--9--9--9--9--7--7--4-4-4-7~-------|
A |--7--7--9--9--7--7--4-4-4-7~-------|
E |--------7--7--5--5--2-2-2-5~-------|

| /  slide up
| \  slide down
| h  hammer-on
| p  pull-off
| ~  vibrato
|(5) harmonic
| x  mute note
| b  bend note
=============================================================================
Comments