Misc Unsigned Bands - The Chaos Theory - Blow You Away Chords & Tabs

 

The Chaos Theory - Blow You Away Chords & Tabs

Misc Unsigned Bands Chords & Tabs

Version: 1 Type: Tab 0 ratings
1 star 2 stars 3 stars 4 stars 5 stars
comments

The Chaos Theory - Blow You Away Tab

   
The Choas Theory
Song:Blow you Away!
Album:Blow you away!
Key:
~-Let ring
+-pick slide
\-slide
b-bend note
/cut off notes

Intro:
e|--------------------|
B|--------------------|
G|--------------------|
D|9-9-9-9-5-5-7-7-9---|+
A|9-9-7-7-5-5-7-7-9---|+
E|7-7-----3-3-5-5-7---|+
Riff:*2
e|----------------------------------------|
B|----------------------------------------|
G|9-7-9-7-9-7-9-12-11-9-7-9-7-9-7-9-12-14-|
D|----------------------------------------|
A|----------------------------------------|
E|----------------------------------------|
Then
e|--------------------------------------------------|
B|--------------------------------------------------|
G|9-7-9-7-9-7-9-12-11-12-12-12-12-12-11-11-11-11\14-|b
D|--------------------------------------------------|
A|--------------------------------------------------|
E|--------------------------------------------------|

Verse:*4
e|----------------------------------------|
B|----------------------------------------|
G|----------------------------------------|
D|9-9-9-9-9-2-2-2-2-2-5-5-5-5-5-7-7-7-7-7-|
A|9-9-9-9-9-2-2-2-2-2-5-5-5-5-5-7-7-7-7-7-|
E|7-7-7-7-7-0-0-0-0-0-3-3-3-3-3-5-5-5-5-5-|
Chorus:
e|--------------------------------|
B|--------------------------------|
G|--------------------------------|
D|9-9-9-9-9-9-5-5-5-5-5-7-7-7-7-7-|
A|9-9-9-7-7-7-5-5-5-5-5-7-7-7-7-7-|
E|7-7-7-------3-3-3-3-3-5-5-5-5-5-|
[ Tab from: http://www.guitartabs.cc/tabs/m/misc_unsigned_bands/the_chaos_theory_blow_you_away_tab.html ]
e|--------------------------------------------|
B|--------------------------------------------|
G|--------------------------------------------|
D|9-9-9-9-9-9-5-5-5-5-5-5-5-5-7-7-7-7-7-7-7-7-|
A|9-9-9-7-7-7-5-5-5-5-5-5-5-5-7-7-7-7-7-7-7-7-|
E|7-7-7-------3-3-3-3-3-3-3-3-5-5-5-5-5-5-5-5-|
Riff *1
Verse*4
Chorus*1
Bass Solo
E|------------------------------------------|
B|------------------------------------------|
G|------------------------------------------|
D|9~9~5~7~9~9~5-------7---------------------|
A|9~7~5~7~9~7~5(*16PM)7(*16PM)--------------|
E|7~--3~5~7~--3-------5---------------------|
CHorus*1
DRums solo/last chorus
e|--------------------------------------------------------|
B|--------------------------------------------------------|
G|--------------------------------------------------------|
D|9/-\9b-5-5-5-5-5-9~7h9b-5-5-5-5-5-5-5-5-7-7-7-7-7-7-7-7-|
A|9/-----5-5-5-5-5-9~-----5-5-5-5-5-5-5-5-7-7-7-7-7-7-7-7-|
E|7/-----3-3-3-3-3-7~-----3-3-3-3-3-3-3-3-5-5-5-5-5-5-5-5-|
End on
e|-------------------------------------------------------|
B|-------------------------------------------------------|
G|-------------------------------------------------------|
D|14~----------------------------------------------------|
A|14~----------------------------------------------------|
E|12~----------------------------------------------------|
Tabber: Drewcifer
Obviously there cant be any problems because i wrote it haha!
Visit the chaos theory at www.freewebs.com/chaostheorysucks check the lyrics out there. 
is yer lucky the almighty steve may jsut post his awesome basslines. Drewcifer Peace out<3
Comments