Misc Unsigned Bands - The Bulldogs - Lfm Song Chords & Tabs

 

The Bulldogs - Lfm Song Chords & Tabs

Misc Unsigned Bands Chords & Tabs

Version: 1 Type: Bass Tab

The Bulldogs - Lfm Song Bass Tab

Bass Tab
[ Tab from: http://www.guitartabs.cc/tabs/m/misc_unsigned_bands/the_bulldogs_lfm_song_btab.html ]
g|-----------|--------------|-----------|--------------|
D|-----------|--------------|-----------|--------------|
A|--5--3--5--|--5--3--5--6--|--5--3--5--|--5--3--5-----|
E|-----------|--------------|-----------|-----------3--| you do this 4 times

g|-----------|-----------|
D|-----------|-----------|
A|-----------|--3--3--5--|
E|--3--3--5--|-----------| you do this 4 times

g|-----------|
D|-----------|
A|--5--3--5--|
E|-----------| 4 times

then start the improvisation