Misc Unsigned Bands - The Bleeding Process - Cut Glass Chords & Tabs

 

The Bleeding Process - Cut Glass Chords & Tabs

Misc Unsigned Bands Chords & Tabs

Version: 1 Type: Tab 0 ratings
1 star 2 stars 3 stars 4 stars 5 stars
comments

The Bleeding Process - Cut Glass Tab

Tabbed by: Gerard_Way_Son
Tuning:Standard

THIS IS A SICK!!!! UNSIGNED BAND...The Bleeding Process, you wont have heard of them
until the release of their mini album; Taste Of Guilt on the 15th of May 2005

Song: Cut Glass
Album: Taste of Guilt (Random Records)

(intro)
e|0-0---------0-0-0-0---------|
B|0-0---------0-0-0-0---------|
G|0-0---------0-0-0-0--5p4----| x9
D|0-0----4b---0-0-0-0------5--|
A|0-0---------0-0-0-0---------|
E|0-0---------0-0-0-0---------|
  * *         * * * *

Most of the song is just this main riff, the bass does most of the work.

  (Main Riff)
e|--------------------------------------|
B|--------------------------------------|
G|--------------------------------------|
D|-------4b-------4b-------4b-------4b--|
A|--------------------------------------|
E|-1-1-1----5-5-5----1-1-1----5-5-5-----|

This is the simplest chorus ever!!!!
e|-12-----------------------------------|
B|----12--------------------------------|
G|--------12-------------4b-------------|
D|------------12------------------------|
A|----------------12--------------------|
E|--------------------------------------|
   +  +   +   +   +

Solo (Very fast!!!)

|-------|-------------------------------------------------------------------|
|-10----|-13p10--11p10---13p10---11p10--11p10-------------------------------|
|-12b14-|------10-----10------10------10------12p10-------------------------|
|-------|-------------------------------------------------------------------|
|-------|-------------------------------------------------------------------|
|-------|-------------------------------------------------------------------|

|---------------------------------------------------------------------------|
|-13p10--11p10---13p10---11p10---10h11p10-----------------------------------|
|------10-----10------10------10----------12p10-----------------------------|
|---------------------------------------------------------------------------|
|---------------------------------------------------------------------------|
|---------------------------------------------------------------------------|

|------------------------------------------------13-------------------------|
|-13p10--11p10---13p10---11p10--11p10-------13b15--15r13p11-13b15-----------|
|------10-----10------10------10------12p10---------------------------------|
|---------------------------------------------------------------------------|
|---------------------------------------------------------------------------|
|---------------------------------------------------------------------------|

--13p12p10------------------------------------------------------------------|
------------13p12p10--------------------------------------------------------|
---------------------12b14r12p10----10--------------------------------------|
---------------------------------12-----12-12*------------------------------|
----------------------------------------------------------------------------|
----------------------------------------------------------------------------|

----------------------------------------------------------------------------|
----------------------------------------------------------------------------|
--12b(14)--t17p(14)-t15p(14)-t17p(14)-t19p(14)-t17p(14)-t15p(14)r12---------|
----------------------------------------------------------------------------|
----------------------------------------------------------------------------|
----------------------------------------------------------------------------|

----------------------------------------------------------------------------|
-t17p10h13-t17p10h13-t17p10h13-t17p10h13-t18p10h13-t18p10h13-t18p10h13--t17-|
----------------------------------------------------------------------------|
----------------------------------------------------------------------------|
----------------------------------------------------------------------------|
----------------------------------------------------------------------------|
[ Tab from: http://www.guitartabs.cc/tabs/m/misc_unsigned_bands/the_bleeding_process_cut_glass_tab.html ]
-----------------------------------------------------------------------------|
--11p10----------------------------------------------------------------------|
-------10-12-12b14-12b14-12-10-12--------------------------------------------|
-----------------------------------------------------------------------------|
-----------------------------------------------------------------------------|
-----------------------------------------------------------------------------|

 |----------------------|------------------------------|-------------------|
|-----------------------|-----3p2-----3p2---------3----|-3p2---------------|
|---------2---4b6b4-----|---------4-------2------------|-----4-------------|
|-----2h4---------------|------------------------------|-------------------|
|-----------------------|------------------------------|-------------------|
|-----------------------|------------------------------|-------------------|

|----------------------------------|----------------------------|
|-----7\5---5\4---4\2---2p0--------|------------------------2h3-|
|---------7-----------4-----0h2----|-2/4--------------2/4-------|
|----------------------------------|----------------------------|
|----------------------------------|----------------------------|
|----------------------------------|----------------------------|


|---------------------------|-------------------------|-------------|
|-2-------------2---3p2-----|-------------------------|-------------|
|---------2/4-----------2---|-2/4---------------------|-------------|
|---------------------------|-------------------------|-------------|
|---------------------------|-------------------------|-------------|
|---------------------------|-------------------------|-------------|


|-----------------}14---19----|-17-15-14-15--------------------|
|-----------------{x----------|-------------15-----------------|
|-----------------}x----------|--------------------------------|
|-----------------{x----------|--------------------------------|
|-----------------------------|--------------------------------|
|-----------------------------|--------------------------------|


|--------------------------------|---------------------------------|
|--------------------------------|---------------------------------|
|-----7p6-7-----9p7-9-------11p9-|-11----11/12---12---11-----------|
|--------------------------------|---------------------------------|
|--------------------------------|---------------------------------|
|--------------------------------|---------------------------------|


|---------------------------------------------|----------------12-----|
|----------------------------------12---------|----12-14---15---------|
|-----------11-12-14---------11-12------------|-11--------------------|
|--------12---------------12---------------12-|-----------------------|
|-----14---------------14---------------14----|-----------------------|
|---------------------------------------------|-----------------------|


 -----------------------|------------------------------|
 ---15---14---12---14---|-14-----15-12-----------------|
 -----------------------|------------------------------|
 -----------------------|------------------------------|
 -----------------------|------------------------------|
 -----------------------|------------------------------|

Yes i know its a long solo but its SICK!!!!

then you got the post solo;

|---20p12h13p12---20p12h13p12-|
|-----------------------------| done slowly x6
|-----------------------------|
|-----------------------------|
|-----------------------------|
|-----------------------------|

outro:
|-0--|
|-0--|
|-0--| x2
|-0--|
|-0--|
|-0--|
  *

Order:
Intro
Main riff
Chorus
Main Riff
Chorus
Solo
Post solo
Main riff
Outro


                        H - Hammer on
			P  - Pick off
			/  - Slide up to...
			\  - Slide down to...
			T  - Tap (With pick or finger)
			+ - Harmonic
                        * - Palm mute
			Tr - Trill
			Wh - Use whammy bar
			^  - Bend string up ( x steps )
			`  - Release bend ( x steps )
Comments