Misc Unsigned Bands - The Audition - Youve Made Us Conscious Chords & Tabs

 

The Audition - Youve Made Us Conscious Chords & Tabs

Misc Unsigned Bands Chords & Tabs

Version: 1 Type: Tab 0 ratings
1 star 2 stars 3 stars 4 stars 5 stars
comments

The Audition - Youve Made Us Conscious Tab

THEaudition

YOU'VE MADE US CONSCIOUS

tabbed by Cullan S.
--------------------------------------------------------------------------------
SEE THEM @

www.myspace.com/theaudition

email me:
relientk_x@yahoo.com

IM me:
Hawth0rne14

myspace me:
www.myspace.com/imawhiteguy


DROP D TUNING


INTRO  (0:00 - 0:11) 

Guitar 1 
e|-------------|
B|-------------|
G|-------------|
D|--4~-6~-2~~--|x2
A|--4~-6~-2~~--|
D|--4~-6~-2~~--|

Guitar 2
e|-----------------|
B|-----------------|
G|--4-3-----6-3-4--|
D|------4----------|x4
A|-----------------|
D|-----------------|

VERSE  (0:11 - 0:32)

Guitar 1
e|---------------------------------------------|
B|---------------------------------------------|
G|---------------------------------------------|
D|--2-2--2-2--4-4--4-4--1-1--1-1--2-2--2-2-----|x4
A|--2-2--2-2--4-4--4-4--1-1--1-1--2-2--2-2-----|
D|--2-2--2-2--4-4--4-4--1-1--1-1--2-2--2-2-----|

Guitar 2 comes in on third time (0:21)
e|---------|
B|---------|
G|-11------|
D|-x--(x32)|x1
A|-9-------|
D|---------|

PRECHORUS  (0:32 - 0:37)

e|------|
B|------|
G|------|
D|--9---|x32
A|--9---|
D|--9---|

CHORUS (0:37 - 0:59)

Guitar 1
e|---------------------------------------------------------------------|
B|---------------------------------------------------------------------|
G|---------------------------------------------------------------------|
D|-4-4-4-4-4-4-4-4--6-6-6-6-6-6-6-6--2-2-2-2-2-2-2-2--2-2-2-2-2-2-2-2--|x4
A|-4-4-4-4-4-4-4-4--6-6-6-6-6-6-6-6--2-2-2-2-2-2-2-2--2-2-2-2-2-2-2-2--|
D|-4-4-4-4-4-4-4-4--6-6-6-6-6-6-6-6--2-2-2-2-2-2-2-2--2-2-2-2-2-2-2-2--|

Guitar 2
e|----------------|
B|----------------|
G|--4-3----6-3-4--|
D|------4---------|x8
A|----------------|
D|----------------|

VERSE  (0:59 - 1:20)

Guitar 1
e|---------------------------------------------|
B|---------------------------------------------|
G|---------------------------------------------|
D|--2-2--2-2--4-4--4-4--1-1--1-1--2-2--2-2-----|x4
A|--2-2--2-2--4-4--4-4--1-1--1-1--2-2--2-2-----|
D|--2-2--2-2--4-4--4-4--1-1--1-1--2-2--2-2-----|

Guitar 2 comes in on third time (1:09)
e|---------|
B|---------|
G|-11------|
D|-x--(x32)|x1
A|-9-------|
D|---------|

PRECHORUS  (1:20 - 1:25)

e|------|
B|------|
G|------|
D|--9---|x32
A|--9---|
D|--9---|


CHORUS  (1:25 - 1:47)
[ Tab from: http://www.guitartabs.cc/tabs/m/misc_unsigned_bands/the_audition_youve_made_us_conscious_tab.html ]
Guitar 1
e|---------------------------------------------------------------------|
B|---------------------------------------------------------------------|
G|---------------------------------------------------------------------|
D|-4-4-4-4-4-4-4-4--6-6-6-6-6-6-6-6--2-2-2-2-2-2-2-2--2-2-2-2-2-2-2-2--|x4
A|-4-4-4-4-4-4-4-4--6-6-6-6-6-6-6-6--2-2-2-2-2-2-2-2--2-2-2-2-2-2-2-2--|
D|-4-4-4-4-4-4-4-4--6-6-6-6-6-6-6-6--2-2-2-2-2-2-2-2--2-2-2-2-2-2-2-2--|

Guitar 2
e|----------------|
B|----------------|
G|--4-3----6-3-4--|
D|------4---------|x8
A|----------------|
D|----------------|


INTERLUDE  (1:47 - 2:19) 


Guitar 1  (same for bass)
e|-----|---------------------------------------------------------------------|
B|-----|---------------------------------------------------------------------|
G|-----|---------------------------------------------------------------------|
D|--4~-|x1-------------------------------------------------------------------|x3
A|--4~-|---------------------------------------------------------------------|
D|--4~-|----4-4-4-4-4-4-4-4-6-6-6-6-6-6-6-6-2-2-2-2-2-2-2-2-2-2-2-2-2-2-2-2--|
          PM|--------------------------------------------------------------|

Guitar 2                    on 12th time
e|-------------------|     e|------------|
B|-------------0-----|     B|------------|  
G|---3-3---------3---|     G|--3-3-------|
D|-------4---4-----4-|x11  D|------4-----|x1
A|-------------------|     A|------------|              
D|-------------------|     D|------------|        


PRECHORUS  (2:19 - 2:30)

e|------|
B|------|
G|------|
D|--9---|x64
A|--9---|
D|--9---|


CHORUS  (2:32 - 2:51)

Guitar 1
e|-----------------------------------|
B|-----------------------------------|
G|-----------------------------------|
D|-2-2-2-2-2-2-2-2-2-2-2-2-2-2-2-2---|x1
A|-2-2-2-2-2-2-2-2-2-2-2-2-2-2-2-2---|
D|-2-2-2-2-2-2-2-2-2-2-2-2-2-2-2-2---|

Guitar 1  (cont.)
e|---------------------------------------------------------------------|
B|---------------------------------------------------------------------|
G|---------------------------------------------------------------------|
D|-4-4-4-4-4-4-4-4--6-6-6-6-6-6-6-6--2-2-2-2-2-2-2-2--2-2-2-2-2-2-2-2--|x3
A|-4-4-4-4-4-4-4-4--6-6-6-6-6-6-6-6--2-2-2-2-2-2-2-2--2-2-2-2-2-2-2-2--|
D|-4-4-4-4-4-4-4-4--6-6-6-6-6-6-6-6--2-2-2-2-2-2-2-2--2-2-2-2-2-2-2-2--|


Guitar 2
e|----------------|
B|----------------|
G|--4-3----6-3-4--|
D|------4---------|x7
A|----------------|
D|----------------|

OUTRO  (2:51 - END)

e|--------------------------|
B|--------------------------|
G|--------------------------|
D|--4-4--6-6--1-1--2-2~-----|
A|--4-4--6-6--1-1--2-2~-----|
D|--4-4--6-6--1-1--2-2~-----|
Comments