Misc Unsigned Bands - Tears Of The Forgotten - Silhouette Of Dreams Chords & Tabs

 

Tears Of The Forgotten - Silhouette Of Dreams Chords & Tabs

Misc Unsigned Bands Chords & Tabs

Version: 1 Type: Tab 0 ratings
1 star 2 stars 3 stars 4 stars 5 stars
comments

Tears Of The Forgotten - Silhouette Of Dreams Tab

Artist: Tears of the Forgotten
Song: Silhouette of Dreams
			
		Intro (clean)
E---------------------------------------------------------------------------|
B--10-11-- 11- -10--8----6----6----5-------------------------------------- -|
G--9---9---10---10---7---7----5----5----------------------------------------|
D---------------------------------7----5------------------------------------|
A---------------------------------------------------------------------------|
D---------------------------------------------------------------------------|
		Enter Distortion 
E---------------------------------------------------------------------------|
B---------------------------------------------------------------------------|
G--7-9-10-9/-12--10--9--10----7-9-10-9/-12-10-9-7har------------------------|
D---------------------------------------------------------------------------|
A---------------------------------------------------------------------------|
D---------------------------------------------------------------------------|
	
E---------------------------------------------------------------------------|
B--------------------------------10-----------------------------------------|
G--9--10----10------9--10----9----------------------------------------------|
D--7--------- 7-------7---------7-------------------------------------------|
A-------------7--8--------------7-8-----------------------------------------|
D---------------------------------------------------------------------------|
		"By my Thoughts. . ."
E---------------------------------------------------------------------------|
B---------------------------------------------------------------------------|
G---------------------------------------------------------------------------|
D--3----12---7-------3----0----5------------------------------------ -------|
A--3----12---7-------3----0----5--------------------------------------------|
D--3----12---7-------3----0----5--------------------------------------------|

Back to verse (#3)

E---------------------------------------------------------------------------|
B---------------------------------------------------------------------------|
G---------------------------------------------------------------------------|
D--12---3---0----12---3---5---3---0---3---0---------7----3---0--------------|
A--12---3---0----12---3---5---3---0---3---0---8-7---7----3---0--------------|
D--12---3---0----12---3---5---3---0---3---0---------7----3---0--------------|

Then Just play an open D5 (000xxx) and palm mute it for a couple strokes
[ Tab from: http://www.guitartabs.cc/tabs/m/misc_unsigned_bands/tears_of_the_forgotten_silhouette_of_dreams_tab.html ]
 
		This is the Solo (part 1)
E------------------------------------------10--------------6-5--------------|
B----------------------------10-11-10-8----8--6-8-6-5-----------------------|
G--------7-9-10-9-10-12-------------------------------------------------- --|
D---7-8---------------------------------------------------------------------|
A---------------------------------------------------------------------------|
D---------------------------------------------------------------------------|
		(part 2)
E---------------------------------------------------------------------------|
B--------------------------10-11-13-10-11-8-10-6-5h6p5----------------------|
G------7-9-10-9-10-12-------------------------------------------------------|
D--7-8----------------------------------------------------------------------|
A---------------------------------------------------------------------------|
D---------------------------------------------------------------------------|
		(Part 3)
E-----------------------------------------------10--------------------------|
B-------------------------10-11-13-10-11-8----5-6-8-------------------------|
G------7-9-10-9-10-12---------------------------------10-9-7----------------|
D-7-8-----------------------------------------------------------8-7--2-1-2--|
A---------------------------------------------------------------------------|
D---------------------------------------------------------------------------|
		"The truth that binds me. . ."
E------------------------------------------------------------------------ --|
B--3------5-----3-----5----3------------------------------------------------|
G--2------3-----2-----3----2------------------------------------------------|
D--3------5-----3-----5----3-----0pm----------------------------------------|
A--0------0-----0-----0----0-----0pm----------------------------------------|
D--------------------------------0pm----------------------------------------|
	Pick...
E---------------------------------------------------------------------------|
B- 5--6---6----8---6---5----------------------------------------------------|
G-7--7---5----5---5---5-----------------------------------------------------|
D---------------------------------------------------------------------------|
A---------------------------------------------------------------------------|
D---------------------------------------------------------------------------|
		
E---------------------------------------------------------------------------|
B---------------5--6*--------------6--8--5----------------------------------|
G---------------7--7---------------5--5--5----------------------------------|
D-0-0-0-0-0---------0-0-0-0-0-----------------------------------------------|
A-0-0-0-0-0---------0-0-0-0-0-----------------------------------------------|
D-0-0-0-0-0---------0-0-0-0-0-----------------------------------------------  X a lot
Comments