Misc Unsigned Bands - Take It To Heart Tuesday - This Life Chords & Tabs

 

Take It To Heart Tuesday - This Life Chords & Tabs

Misc Unsigned Bands Chords & Tabs

Version: 1 Type: Tab 0 ratings
1 star 2 stars 3 stars 4 stars 5 stars
comments

Take It To Heart Tuesday - This Life Tab

   
This Is an up and coming artist out of Southern California (SD). I watched them play a
show and recorded this on my camera phone then tabbed it out. You should watch for these
guys!!
1. 			     This Life - Take It To Heart Tuesday
-------------------------------------------------------------------------------
Tabbed by: HON		
Email:

Tuning: Capo 2nd Fret (all numbers relative to capo)

Riff A
e|-------0-------0---------0-----------|
B|-----3-------3-------3-----3---------|
G|---2-------2-------2---2-----2--0----|
D|0-------0-------0-------------------|
A|-------------------------------------|
E|-------------------------------------|

e|-------0-------0---------0-----------|
B|-----3-------3-------3-----3--3-----|
G|--0-------0-------0---0-----0-------|
D|-------------------------------------|
A|-3-------3-------3-------------------|
E|-------------------------------------|
[ Tab from: http://www.guitartabs.cc/tabs/m/misc_unsigned_bands/take_it_to_heart_tuesday_this_life_tab.html ]
e|-------0--------3-------2-----0------|
B|-----3--------3-------3---------3----|
G|--2--------2-------2-------2--------|
D|-0--------0-------0-------0----------|
A|-------------------------------------|
E|-------------------------------------|

e|-------0-------3-------2-----0-------|
B|-----3-------3-------3---------3-----|
G|--0-------0-------0-------0---------|			
D|-------------------------------------|
A|-3-------3-------3-------3-----------|
E|-------------------------------------|

e|-------0------3---------0-----0-----------0-0h2p0-----0--2--3--2----------|
B|-----3---------0-----3---------3-------3---------3--------------3--------|
G|-2--------0-------0-------2----2---2-------------2--------------2-0----|
D|-0----------------------------------0-------------------------------------|
A|---------3--------2-------0-----------------------------------------------|
E|--------------------------------------------------------------------------|



| /  slide up
| \  slide down
| h  hammer-on
| p  pull-off
| ~  vibrato
| +  harmonic
| x  Mute note
===============================================================================
Comments