Misc Unsigned Bands - Stonegarth - Sing Silence Chords & Tabs

 

Stonegarth - Sing Silence Chords & Tabs

Misc Unsigned Bands Chords & Tabs

Version: 1 Type: Tab 0 ratings
1 star 2 stars 3 stars 4 stars 5 stars
comments

Stonegarth - Sing Silence Tab

   
This is an awesome song by the unsigned UK rock band Stonegarth. I heard them on the
radio in Wales last week and have since bought their album on line at www.imgifted.co.uk/artists/Stonegarth.

			     Sing Silence - Stonegarth
--------------------------------------------
Tabbed by: limeyproject
Email: branfredrecords@yahoo.co.uk

Tuning: DADGBE
Main riff
e|-------------------------------------------------------------------------|
B|-------------------------------------------------------------------------|
G|----7h8p7----------------------------------------------------------------|
D|----0-----9-7--------------------3-----5---0-----7-----------------------|
A|----------------10-9------------3-----5---0-----7-7----------------------|
D|-0~-----------0------0-10-9\---3---3-5---0---0-7-------------------------|
[ Tab from: http://www.guitartabs.cc/tabs/m/misc_unsigned_bands/stonegarth_sing_silence_tab.html ]
bridge
e|-------------------------------------------------------------------------|
B|-------------------------------------------------------------------------|
G|-------------------------------------------------------------------------|
D|---------------------------------------------------------------------12--|
A|-5-5-5-5-5h7-7-7-7------3-3-3-3-3h5-5-5-5-----12-12-12-10-10--15-17\-12--|
D|-0-0-0-0-0---0-0-0--0-0-0-0-0-0-0---0-0-0-0-0-0--0--0--0--0---15-17\-12--|

Chorus (strum)
e|-------------------------------------------------------------------------|
B|-7--7--5--7h8------------------------------------------------------------|
G|-7--7--5--7--------------------------------------------------------------|
D|-7--7--5--5--------------------------------------------------------------|
A|-0--9--7--5--------------------------------------------------------------|
D|-0--9--7--5--------------------------------------------------------------|


| /  slide up
| \  slide down
| h  hammer-on
| p  pull-off
| ~  vibrato
===============================================================================
Comments