Misc Unsigned Bands - Steindom - Koprofag Chords & Tabs

 

Steindom - Koprofag Chords & Tabs

Misc Unsigned Bands Chords & Tabs

Version: 1 Type: Tab 0 ratings
1 star 2 stars 3 stars 4 stars 5 stars
comments

Steindom - Koprofag Tab

Hey we are a band from norway and we would like you all to enjoy our songs...
this song is about the state ministry in norway so enjoy;)

()- natural harmonic
p - pull off
h - hammer on
[]- artificial harmonic
T - tap
* - let ring
" - raise with bar (showed)

Intro w. both guitars
Clean
riff 1                  riff 2                 riff 3
         T
|------0-12p0----------||-0-----------0-0-----||-0--------5-----------|
|-----0-------0---0----||-----------0---0-----||---0--------5---------|
|----9---------9-------||---------0-------0---||--0--0--------5-------|
|---9--------------9---||-----9-----------9---||----7--7--------7-----|
|--7----------------7--||-------9-----------9-||------7-----------7---|
|-0------------------0-||---7---------------7-||--------5-----------5-|

riff 4

|----(7)--------------------(12)-|
|--------------(5)-----(12)------|
|----------(5)-----(7)-----------|      repeat intro 1 time
|--------------------------------|
|--------------------------------|
|-(7)----------------------------|

Verse w. both guitars
Heavy Distortion 
riff 5              riff 6              riff 7

|------------------||------------------||----------------|
|------------------||------------------||----------------|
|-9--9-9-9-9-9-9-9-||------------------||----------------|
|-9--9-9-9-9-9-9-9-||-9--9-9-9-9-9-9-9-||-7--7-7-7-7-7-7-|
|-7--7-7-7-7-7-7-7-||-9--9-9-9-9-9-9-9-||-7--7-7-7-7-7-7-|
|------------------||-7--7-7-7-7-7-7-7-||-5--5-5-5-5-5-5-|

riff 8

|------------------|
|------------------|
|------------------|      repeat verse 4 times
|-9--9-9-9-9-9-9-9-|
|-9--9-9-9-9-9-9-9-|
|-7--7-7-7-7-7-7-7-|

Chorus
Heavy Distortion 
riff 9                   riff 10
                 *                        *
|-----------------------||-----------------------|
|-----------------------||-----------------------|
|-9--9-9-9-9-9-9--------||-7--7-7-7-7-7-7--------|   guitar 1
|-9--9-9-9-9-9-9-9------||-7--7-7-7-7-7-7-7------|
|-7--7-7-7-7-7-7-9------||-5--5-5-5-5-5-5-7------|
|----------------7------||----------------5------|
                                                        repeat chorus 1 time
                 *
|-----------------------||-10--10--10--10--------|
|-----------------------||-13b-13b-13b-13b-------|
|-9--9-9-9-9-9-9--------||-----------------------|   guitar 2
|-9--9-9-9-9-9-9-9------||----------------7------|
|-7--7-7-7-7-7-7-9------||----------------7------|
|----------------7------||----------------5------|

First solo
Heavy Distortion w. wahwah
guitar 2 play riff 5,6,7,8,5,6,7,8
[ Tab from: http://www.guitartabs.cc/tabs/m/misc_unsigned_bands/steindom_koprofag_tab.html ]
|------------------------------------------------------------------------|
|------------------------------------------------------------------------|
|---------------------------------------------------------------12-14-15-|
|------------------------------------12-14-15----------12-14-15----------|
|---------12-------12-14----12-14-15----------12-14-15-------------------|
|12-14-15----14-15-------15----------------------------------------------|

                                                                  *
|-19p15----------15s12------12-17h12----------12------------12h17--------|
|------17------17-----13--13--------13------13------------13------15-----|
|--------16--16---------14------------14--14------------14--------14b----|
|----------17---------------------------14---------10h14-----------------|
|------------------------------------------------12----------------------|
|------------------------------------------------------------------------|

Verse

Chorus

Second solo
Heavy Distortion

  
|---------13h17s22p17--------------------13-15p13--------------------15-|
|-------15-----------18----------------15--------15----------------17---|
|-----14---------------19p14---------15------------15------------17-----|
|---15----------------------15-----15----------------15--------17-------|
|-17--------------------------13s17--------------------17s15h19---------|
|-----------------------------------------------------------------------|


|-17p15--------------------------------18-20-22--22----------------------|
|------17-------------------17-18-20-22------------18-22--18----------18-|
|--------17---------15-17-19----------------------------17--17--17--17---|
|----------17--17-19------------------------------------------19--19-----|
|------------19----------------------------------------------------------|
|------------------------------------------------------------------------|


|-------------------------------------17-20----20-19-17----17----17-19-|
|-16-17-20-16-17-22-16-17-20-16-17-22-------18----------20----20-------|
|----------------------------------------------------------------------|
|----------------------------------------------------------------------|
|----------------------------------------------------------------------|
|----------------------------------------------------------------------|


|-20-19-17----------19-17--------------------------------------------------|
|----------20-19-17--------------------/\----------------------------------|
|---------------------------------[2]-/--\--------------------9------10--9-|
|------------------------------------/---------10--9--12--10-----12--------|
|------------------------------------------12------------------------------|
|--------------------------------------------------------------------------|
Comments