Misc Unsigned Bands - Spatch 45 - Phone Call Chords & Tabs

 

Spatch 45 - Phone Call Chords & Tabs

Misc Unsigned Bands Chords & Tabs

Version: 1 Type: Tab 0 ratings
1 star 2 stars 3 stars 4 stars 5 stars
comments

Spatch 45 - Phone Call Tab

Song:  "Phone Call"
Band: Spatch 45 (new band from norway)
Performed by: T.O. isaksen (Vocals & leadguitar), 
Pete O.Hustad (Vocals & rythmguitar) , Chris (Bass), 
Searching for drummer.
Intro &Verse originally tabbed by T.O.(Tor Odin) from Spatch 45,
my E-mail is   

Standar tuning - EADBGe

Guitar 1= "T.O." Isaksen
Guitar 2= "Pete" O. Hustad

h=hammer on
pm|---|= palm mute
x=muted string
^=Vibrate
 
Intro* (Gtr.1)
|---------------------------------------------------------------------|
|---------------------------------------------------------------------|
|---------------------------------------------------------------------|
|---------------------------------------------------------------------|
|-------3-------3-------3/5-------------------------------------------|
|---x-x-1---x-x-1---x-x-1/3-------------------------------------------|x2

Intro* (Gtr.2) Play this at the same time in to that other part starts.
|---------------------------------------------------------------------|
|---------------------------------------------------------------------|
|---------------------------------------------------------------------|
|---------------------------------------------------------------------|
|---------------------------------------------------------------------|
|---x-x-x-x-x-x-x-x-x-x-x-x-x-x-x-x-x-x-x-x-x-------------------------|
   |This-is-20-times-------------------------| 

Verse* (Gtr.1)
|---------------------------------------------------------------------|
|---------------------------------------------------------------------|
|---------------------------------------------------------------------|
|---5-5-5-5-5-5-5-5---------------------------------------------------|
|---3-3-3-3-3-3-3-3-5-5-5-5-5-5-5-5-7-7-7-7-7-7-7-7-5-5-5-5-5-5-5-5---|
|-------------------3-3-3-3-3-3-3-3-5-5-5-5-5-5-5-5-3-3-3-3-3-3-3-3---|x2
[ Tab from: http://www.guitartabs.cc/tabs/m/misc_unsigned_bands/spatch_45_phone_call_tab.html ]
Verse* (Gtr.2)
|--------------------------------------------------------------------|
|--------------------------------------------------------------------|
|--------------------------------------------------------------------|
|--------------------------------------------------------------------|
|-------3-------3-------3/5------------------------------------------|
|---x-x-1---x-x-1---x-x-1/3------------------------------------------|x8(maybe 7)

End Of Verse* (Gtr.1)
|---------------------------------|
|---------------------------------|
|---------------------------------|
|---3-----------------------------|
|---1--3----5---------------------|
|------1----3---------------------|
Let This    ^ tone ring
                               \End on this/
|---------------9--------|---|----------------------------------------|
|----------9-10---10-----|---|---11-9-11---------(Let ring)-----------|
|--11-9-11---------------|---|----------------------------------------|
|------------------------|---|----------------------------------------|
|------------------------|---|----------------------------------------|
|------------------------|x2-|----------------------------------------|

Verse* (Gtr.2)
|---------------------------------------------------------------------|
|---------------------------------------------------------------------|
|---------------------------------------------------------------------|
|---4-4-4-4-4-4-4-4---------------------------------------------------|
|---5-5-5-5-5-5-5-5-5-5-5-5-5-5-5-5-9-9-9-9-9-9-9-9-9-5-5-5-5-5-5-5-5-|
|-------------------3-3-3-3-3-3-3-3-7-7-7-7-7-7-7-7-7-3-3-3-3-3-3-3-3-|x2

Double Solo1* (Gtr.1)
|------------------------------------------12-13-15-13-15-|---|13-12\10-14^|
|---------------------------12-13-15-13-15----------------|---|------------|
|---------------------12-14-------------------------------|---|------------|
|------------12-14-15-------------------------------------|---|------------|
|---12-14-15----------------------------------------------|---|------------|
|---------------------------------------------------------|x2-|------------|

Double Solo2* (Gtr2.This is played very slow.)
|-----------------------------------------------------------------------|
|-----------------------------------------------------------------------|
|---11-12-14/16-14-12-14-16-14-12\11-12-11------------------------------|
|------------------------------------------14^--------------------------|
|-----------------------------------------------------------------------|
|-----------------------------------------------------------------------|x2 
Double Solo1 and Double Solo2 are ending at the same time.

Was that so hard? E-mail me if it is Something, Or Pete His E-mail is 
Comments