Misc Unsigned Bands - Soul Freedom - No Title Chords & Tabs

 

Soul Freedom - No Title Chords & Tabs

Misc Unsigned Bands Chords & Tabs

Version: 1 Type: Tab 0 ratings
1 star 2 stars 3 stars 4 stars 5 stars
comments

Soul Freedom - No Title Tab

Itīs a new spanish rock band. They just had begun, but i see a good future for them.

|--------------0------------0------------0------------0------------0------------0------------0-------|
|-------------------5------------5------------4------------3------------2------------2------------2--|
|----------------------------------------------------------------------------------------------------|
|-----------0------------0------------0------------0------------0------------0------------0----------|
|----------------------------------------------------------------------------------------------------|
|----------------------------------------------------------------------------------------------------|

|--------------0---------------0------------0--------------0------------0------------0-----------0--|
|-------------------7---------------7------------9--9----------9------------8------------8----------|
|---------------------------------------------------------------------------------------------------|
|-----------0---------------0------------0---------------0------------0------------0-----------0----|
|---------------------------------------------------------------------------------------------------|
|---------------------------------------------------------------------------------------------------|
[ Tab from: http://www.guitartabs.cc/tabs/m/misc_unsigned_bands/soul_freedom_no_title_tab.html ]
|--------------0------------0------------0---------------0------------0------------0------------0----|
|-------------------6------------5------------5h7-4---------4------------4------------2-----------2--|
|----------------------------------------------------------------------------------------------------|
|-----------0------------0------------0----------------0------------0------------0------------0------|
|----------------------------------------------------------------------------------------------------|
|----------------------------------------------------------------------------------------------------|

|--------------0---------------0------------0------------2------------2------------4------------4-----|
|-----------------2/1p0-----------0------------0------------0------------0------------0------------0--|
|-----------------------------------------------------------------------------------------------------|
|-----------0---------------0------------0------------0------------0------------0------------0--------|
|-----------------------------------------------------------------------------------------------------|
|-----------------------------------------------------------------------------------------------------|

|--------------4------------4------------4------------4------------4------------4-------|
|-------------------7------------7------------6------------6------------5------------5--|
|---------------------------------------------------------------------------------------|
|-----------0------------0------------0------------0------------0------------0----------|
|---------------------------------------------------------------------------------------|
|---------------------------------------------------------------------------------------|

|--------4-------------------------|
|--------------4---4---4v----------|
|----------------------------------|
|-----0----------------------------|
|----------------------------------|
|----------------------------------|
Comments