Misc Unsigned Bands - Some Kind Of Hero - My Song Chords & Tabs

 

Some Kind Of Hero - My Song Chords & Tabs

Misc Unsigned Bands Chords & Tabs

Version: 1 Type: Tab 0 ratings
1 star 2 stars 3 stars 4 stars 5 stars
comments

Some Kind Of Hero - My Song Tab

   
My SongŪ 

I left the background on this page blank so that if anyone wants to print our
tabs they can go ahead and do it, just please make sure you get our permission
before you post them anywhere else.
--------------------------------------------------------------------------------
For This Song:
() = Pull 
-> = Slide 
This tab is confusing, so beware! 


Intro:


E--|-------------------------------------------|
B--|-------------------------------------------|
G--|-------------------------------------------|
D--|---6-7-6---6-7-6-(12)---4-5-4---4-5-4-(12)-|
A--|-7------7------(12)--5------5------(12)----|
E--|-------------------------------------------|

Note: On A, play second pull as "G" for this last line.

E--|--------------------------------------------|
B--|--------------------------------------------|
G--|--------------------------------------------|
D--|---2-3-2--2-3-2-(12)---4-5-4--4-5-4----(12)-|
A--|-3----3-----(12)-5----5----->0-0------------|
E--|--------------------------------------------|


E--|-------------------------------------------|
B--|-------------------------------------------|
G--|-------------------------------------------|
D--|----(12)----(2)----------------------------|
A--|----(12)----(2)---Short Drum Roll----------|
E--|-0-0----0-0--------------------------------|


Verse:

E--|-------------------------------------------|
B--|-------------------------------------------|
G--|-------------------------------------------|
D--|--2-2-2-2----------------------------------|
A--|--2-2-2-2---2-2-2-2---4-4-4-4---6-6-6-6----|
E--|--0-0-0-0---3-3-3-3---5-5-5-5---7-7-7-7----|


Play this last part (4x)
[ Tab from: http://www.guitartabs.cc/tabs/m/misc_unsigned_bands/some_kind_of_hero_my_song_tab.html ]
G (3x); Em (4x)<-Pause after first; C (3x); A (4x)<-Pause after first

G (3x); Em (4x)<-Pause after first; C (3x); D (4x)<-Pause after first


Guitar Solo:

E--|--------------------------------------------------|
B--|--------------------------------------------------|
G--|---------------6-7-6---------------4-5-4----------|
D--|--6-7-6--6-7-6--6-7----7---4-5-4--4-5-4--4-5----5-|
A--|-7----7----7------7-5----5----5----5--------------|
E--|--------------------------------------------------|

Verse:

E--|-----------------------------------------------|
B--|-----------------------------------------------|
G--|---------------2-3-2---------------2-3-2-------|
D--|---2-3-2--2-3-2--2-3-----3---4-3-4--4-5-4--4-5-|
A--|--3-----3-----3-------3--5---5----5------------|
E--|-----------------------------------------------|


G (3x); Em (4x); C (3x); A (4x)

G (3x); Em (4x); C (3x); D (4x)


Drum Roll...

E--|-------------------------------------------|
B--|-------------------------------------------|
G--|-------------------------------------------|
D--|--------------------2--2-2-2---------------|
A--|-6-6-6-6-4-4-4-4-2-2-2-2--2--2-5-2---------|
E--|-7-7-7-7-5-5-5-5-3-3-3-3--0--0-0-0---------|

E--|-------------------------------------------|
B--|-------------------------------------------|
G--|-7-6----5-4----5-2-------------------------|
D--|----7------5------3------------------------|
A--|-------------------------------------------|
E--|-------------------------------------------|

A; Em; End

This is a new band. Learn more about them and check tab accuracy at
www.somekindofhero.bravepages.com.
Comments