Misc Unsigned Bands - Sixpouder - Sixpounder Chords & Tabs

 

Sixpouder - Sixpounder Chords & Tabs

Misc Unsigned Bands Chords & Tabs

Version: 1 Type: Tab

Sixpouder - Sixpounder Tab

   
Matt Hare-gtr I-eb,Bb,Gb,Db,Ab,eb-clean



Intro
|-------------------------|
|-------------------------|
|-------------------------|
|-------------------------|
|-------------------------|
|-7-5-7-5-7-7-5-7-5-7-5-0-|(x4)


Verse
|-------------------------------------|
|-------------------------------------|
|-------------------------------------|
|-------11-------11-------12-------12-|
|-11-12----11-12----11-12----11-12----|
|-------------------------------------|(x2)


Chorus
|-------------------------|
|-------------------------|
|-------------------------|
|-------------------------|
|-----7-----7-----8-----8-|
|-7-8---7-8---7-8---7-8---|(x4)

[ Tab from: http://www.guitartabs.cc/tabs/m/misc_unsigned_bands/sixpouder_sixpounder_tab.html ]
Bridge(strumming)
|-1-0-1-0-|
|-0-2-0-0-|
|-0-2-0-1-|
|-0-2-0-2-|
|-2-0-2-2-|
|-3---3-0-|
  G A G E


|-12*-------------------------------------12*-|
|-----12*-----------------------------12*-----|
|---------12*---------------------12*---------|
|-------------12*-------------12*-------------|
|-----------------12*-----12*-----------------|
|---------------------12*---------------------|


Outro
|-------------------------------------------------------|
|-------------------------------------------------------|
|-------------------------------------------------------|
|-------------------------------------------------------|
|-------------------------------------------------------|
|-7-0-5-0-7-0-5-0-7-5-7-5-7-0-5-0-7-0-5-0-7-5-7-5-7-7-0-|