Misc Unsigned Bands - Shred - Witch Doctor From Hell Chords & Tabs

 

Shred - Witch Doctor From Hell Chords & Tabs

Misc Unsigned Bands Chords & Tabs

Version: 1 Type: Bass Tab 0 ratings
1 star 2 stars 3 stars 4 stars 5 stars
comments

Shred - Witch Doctor From Hell Bass Tab

   
-------------------------------------------------------------------------------
			     Witch Doctor From Hell - Shred
-------------------------------------------------------------------------------
This is our first full song. Try and work out a rythm. We have gigs lined up across the 
so if you see the name Shred around, come see us!

Tabbed By : Ally Weir
e-mail: minibeto50@hotmail.com

Tuning:Standard E A D G.

G|---------------------------------------------------------------------------------------|
D|---------------------------------------------------------------------------------------|
A|-----------------7--------------------------7--------------------------5---------------|
E|----0-----0------------0------0------0-----------0-------/3----3--------------3--------|
[ Tab from: http://www.guitartabs.cc/tabs/m/misc_unsigned_bands/shred_witch_doctor_from_hell_btab.html ]
G|--------------------------------------------------------------------------------|
D|-----------------------7-------5------------------------------------------------|
A|--------------------------------------------------------------------------------|
E|----/5-----5--------------------------------------------------------------------|
Play that a few times then The makes a strange sound
G|------------------------------------------------------------------------------|
D|------------------------------------------------------------------------------|
A|------------------------------------------------------------------------------|
E|---0-0-0-0-0-0-0-0-0-0-0-0-0-0-0-0-/15-15-15-15-15-15-15-15-/17-17-17-17-\15--|
That's the verse and bridge

Chorus
G|-------------------------------------------------------------|
D|-------------------------------------------------------------|
A|----7---5---7---5---7----------------------------------------|
E|----------------------------3-3-3-3-3-3-3-3-5-5-5-5-5-5-5-5--|
BREAKDOWN-crazy drums
G|---------------------------------------------|
D|---------------------------------------------|
A|---------------------------------------------|
E|---12\---0-0-12-0-0-15-0-0-17-0-0-15-0-0-12--|


Play that four times
Order:
Intro x 6
Verse x 8
Bridge x 4
Chorus x 4
Verse x 4
Bridge x 4
Chorus x 4
Verse x 4v(guitar solo)
Breakdown x 12

| /  slide up
| \  slide down
| h  hammer-on
| p  pull-off
| ~  vibrato
| +  harmonic
| x  Mute note
===============================================================================
Comments