Misc Unsigned Bands - Shemp - Yohan Chords & Tabs

 

Shemp - Yohan Chords & Tabs

Misc Unsigned Bands Chords & Tabs

Version: 1 Type: Tab 0 ratings
1 star 2 stars 3 stars 4 stars 5 stars
comments

Shemp - Yohan Tab

   
-------------------------------------------------------------------------------
			     Yohan - Shemp
----------------------------------------------------------------------------
shemp homepage- www.freewebs.com/shempband
country-u.s.a
city-hartford
members-frank,jay,bryan,kisluk
years-together 3 years




Tabbed by:ooglepath
Email:Grateful4phish12@AOL.com

Tuning:regular eadgbe
e|---------------------------------------------------------------------------|
B|--9--7--5------------------------------------------------------------------|
G|--7--7--6--7---------------------------------------------------------------|repeat 8x
D|--7--7--7--7---------------------------------------------------------------|
A|-----------9---------------------------------------------------------------|
E|---------------------------------------------------------------------------|

e|--7--5--7------------------------------------------------------------------|
B|--9--5--7------------------------------------------------------------------|
G|--9--6--8------------------------------------------------------------------|chorus
D|--9--7--9------------------------------------------------------------------|
A|--7--7--9------------------------------------------------------------------|
E|-----5--7------------------------------------------------------------------|

repeat verse 4x
[ Tab from: http://www.guitartabs.cc/tabs/m/misc_unsigned_bands/shemp_yohan_tab.html ]
break 
e|---15b17-15--8-10--------------------------8\3-5-3-----------3-5b7p3-------|
B|------------------10-8----10-8--10b12-8-10---------5-3---3-5---------5p3---|
G|------------------------9------------------------------4-------------------|
D|---------------------------------------------------------------------------|
A|---------------------------------------------------------------------------|
E|---------------------------------------------------------------------------|

e|---------------------------------------------------------------------------|
B|---------------------------------------------------------------------------|
G|--4p3p0--------------------------------------------------------------------|
D|---------------------------------------------------------------------------|
A|---------------------------------------------------------------------------|
E|---------------------------------------------------------------------------|
   verse 1x          
   chorus1x into... 
  
(solo) main theme
e|-------------12-15--15-15-15-15b17-15p14p12-12-----------------------------|
B|-------12-15-----------------------------------15-12-----------------------|
G|-12-14-----------------------------------------------15-14-12--------------|
D|---------------------------------------------------------------------------|
A|---------------------------------------------------------------------------|
E|---------------------------------------------------------------------------|
   noodle in emin pentatonic for about 10 min.
 
 end lick- build up to as fast as you can play and and slide down into
e|---------------------------------------------------------------------------|
B|---------------------------------------------------------------------------|
G|--------2------------------------------------------------------------------|
D|--0-2-4--------------------------------------------------------------------|
A|---------------------------------------------------------------------------|
E|----------3----------------------------------------------------------------|


| /  slide up
| \  slide down
| h  hammer-on
| p  pull-off
| ~  vibrato
| +  harmonic
| x  Mute note
Comments