Misc Unsigned Bands - Severe Punishment - Here Comes The Pain Chords & Tabs

 

Severe Punishment - Here Comes The Pain Chords & Tabs

Misc Unsigned Bands Chords & Tabs

Version: 1 Type: Tab 0 ratings
1 star 2 stars 3 stars 4 stars 5 stars
comments

Severe Punishment - Here Comes The Pain Tab

   
Band - Severe Punishment
Tabbed by - Justin Larkin
Written by - Justin Larkin & Kyle Norbury
Song - Here Comes the Pain
Album - Here Comes the Pain

This bit on heavy distortion. Play it REALLY fast.
e||---------------------------------------||
B||---------------------------------------||
G||---------------------------------------||
D||-9-----9-----9-----9-----9-----9/12\11-|| (x2)
A||-7-----7-----7-----7-----7-----7/10\9--||
E||---000---000---000---000---000---------||
p.m.- ...   ...   ...   ...   ...

Then this bit:
e||-----------------------------------||
B||-----------------------------------||
G||-----------------------------------||
D||-9-----9-----9-----9-----9-----5/9-||
A||-7-----7-----7-----7-----7-----7/7-||
E||---000---000---000---000---000-----||
p.m.- ...   ...   ...   ...   ...

Do all that twice and go into a pick scratch from the pick-ups down to around
the seven. Then this rhythm bit w/ singing:
e||---------------------------------||
B||---------------------------------||
G||-------------------------------3-|| (x4)
D||-5-xxx-5-xxx-5-xxx-5-xxx-5-x-5-3-||
A||-5-xxx-5-xxx-5-xxx-5-xxx-5-x-5-1-||
E||-3-xxx-3-xxx-3-xxx-3-xxx-3-x-3---||

Then the chorus, same as the intro.
e||---------------------------------------||
B||---------------------------------------||
G||---------------------------------------||
D||-9-----9-----9-----9-----9-----9/12\11-|| (x2)
A||-7-----7-----7-----7-----7-----7/10\9--||
E||---000---000---000---000---000---------||
p.m.- ...   ...   ...   ...   ...

e||-----------------------------------||
B||-----------------------------------||
G||-----------------------------------||
D||-9-----9-----9-----9-----9-----5/9-||
A||-7-----7-----7-----7-----7-----7/7-||
E||---000---000---000---000---000-----||
p.m.- ...   ...   ...   ...   ...

Then, comes verse # 2.
e||---------------------------------||
B||---------------------------------||
G||-------------------------------3-|| (x4)
D||-5-xxx-5-xxx-5-xxx-5-xxx-5-x-5-3-||
A||-5-xxx-5-xxx-5-xxx-5-xxx-5-x-5-1-||
E||-3-xxx-3-xxx-3-xxx-3-xxx-3-x-3---||

Then Chorus #2.
e||---------------------------------------||
B||---------------------------------------||
G||---------------------------------------||
D||-9-----9-----9-----9-----9-----9/12\11-|| (x2)
A||-7-----7-----7-----7-----7-----7/10\9--||
E||---000---000---000---000---000---------||
p.m.- ...   ...   ...   ...   ...
[ Tab from: http://www.guitartabs.cc/tabs/m/misc_unsigned_bands/severe_punishment_here_comes_the_pain_tab.html ]
e||-----------------------------------||
B||-----------------------------------||
G||-----------------------------------||
D||-9-----9-----9-----9-----9-----5/9-||
A||-7-----7-----7-----7-----7-----7/7-||
E||---000---000---000---000---000-----||
p.m.- ...   ...   ...   ...   ...

Then the rhythm solo.
e||---------------------||
B||---------------------||
G||---------------------||
D||-0--0-2-3------2h3p2-||
A||----------3-1--------||
E||---------------------||

e||--------------------------||
B||--------------------------||
G||--------------------------|| (both those bits x3)
D||-0--0-2-3-----2h3/5-3/7\5-||
A||----------3-1-------------||
E||--------------------------||

When the rhythm solo hits it's second time around, another guitar plays this
on clean:
e||------------------------||
B||------------------------||
G||-----9--7-----5-----7---|| (x3), (play this once after the rhythm solo is   
D||---9------7-----5-----7-||        done.)
A||-7----5-----3-----5-----||
E||------------------------||

Then the chorus twice.
e||---------------------------------------||
B||---------------------------------------||
G||---------------------------------------||
D||-9-----9-----9-----9-----9-----9/12\11-|| (x2)
A||-7-----7-----7-----7-----7-----7/10\9--||
E||---000---000---000---000---000---------||
p.m.- ...   ...   ...   ...   ...

e||-----------------------------------||
B||-----------------------------------||
G||-----------------------------------||
D||-9-----9-----9-----9-----9-----5/9-||
A||-7-----7-----7-----7-----7-----7/7-||
E||---000---000---000---000---000-----||
p.m.- ...   ...   ...   ...   ...

And the second time.
e||---------------------------------------||
B||---------------------------------------||
G||---------------------------------------||
D||-9-----9-----9-----9-----9-----9/12\11-|| (x2)
A||-7-----7-----7-----7-----7-----7/10\9--||
E||---000---000---000---000---000---------||
p.m.- ...   ...   ...   ...   ...

e||-----------------------------------||
B||-----------------------------------||
G||-----------------------------------||
D||-9-----9-----9-----9-----9-----5/9-||
A||-7-----7-----7-----7-----7-----7/7-||
E||---000---000---000---000---000-----||
p.m.- ...   ...   ...   ...   ...

Then the backing solo riff:

e||------------------------||
B||------------------------||
G||-----9--7-----5-----7---|| (x3)   
D||---9------7-----5-----7-||        
A||-7----5-----3-----5-----||
E||------------------------||

And backing that riff up will be this little harmonic bit, and play it once after the
other riff is done, more slowly to end the song.
e||-<12>---------<12>-||
B||-<12>---------<12>-||
G||----------<7>------|| (x4)
D||------<7>-<7>------||
A||------<7>----------||
E||-------------------||

To check out our lyrics & such, visit www.All Good Tabs.com and search "Severe  Punishment."
Comments