Misc Unsigned Bands - Senas Kuinas - Paukstis Chords & Tabs

 

Senas Kuinas - Paukstis Chords & Tabs

Misc Unsigned Bands Chords & Tabs

Version: 1 Type: Bass Tab 0 ratings
1 star 2 stars 3 stars 4 stars 5 stars
comments

Senas Kuinas - Paukstis Bass Tab

-------------------------------------------------------------------------------
			     SENAS KUINAS - Paukstis
-------------------------------------------------------------------------------

Tabbed By : phx
e-mail: justast@splius.lt

Tuning: EADG

G|----------------------------------------------------|
D|--------5------------5-----------------5------------|
A|------5---7--------5---7--------7----5---7----------| 2x
E|-0--7---------0--7--------5--7-----7----------------|

Verse1&2
G|----------------------------------------------------|
D|--------5------------5----------------------5-------|
A|------5---7--------5---7--7-5--------7----5---7-----|
E|-0--7---------0--7------------5--57-----7-----------|

Interlude
G|--------------------------------------------------------------------|
D|--------------------------------------------------------------------|
A|----5-3-------------7-5-------------6--------8-6--------------1-1---|
E|-3------3--3-4-5-5------7-5--5-7-8----8-7-8------8-3--0-1-2-3-----3-|
[ Tab from: http://www.guitartabs.cc/tabs/m/misc_unsigned_bands/senas_kuinas_paukstis_btab.html ]
G|--------------------------------------------------------------------|
D|--------------------------------------------------------------------|
A|----5-3-------------7-5-------------6--------8-6--------------------|
E|-3------3--3-4-5-5------7-5--5-7-8----8-7-8------8-3--0-1-2-3-3-----|

Verse3
G|----------------------------------------------------|
D|--------5------------5----------------------5-------|
A|------5---7--------5---7--7-5--------7----5---7-----|
E|-0--7---------0--7------------5--57-----7-----------|

Ending
G|--------------------------------------------------------------------|
D|--------------5-----------------5-------------------5---------------|
A|-7-5--------5---7-------------5---7--7-5--------------7-7-5---------|
E|-----7-0--7--------7-5-5-0--7------------5555-5777----------7-0-----|

G|--------------------------------------------------------------------|
D|-----5-------5----------5------5----------------------5-------------|
A|---5-------5---7------5---7--7---7-------------7----5---7-----------|
E|-7-----0-7--------0-7--------------5-5--6-7-7-----7-----------------|

===============================================================================
Comments