Misc Unsigned Bands - Sarezieh - Jenna Reid Chords & Tabs

 

Sarezieh - Jenna Reid Chords & Tabs

Misc Unsigned Bands Chords & Tabs

Version: 1 Type: Tab 0 ratings
1 star 2 stars 3 stars 4 stars 5 stars
comments

Sarezieh - Jenna Reid Tab

   
This is my bands name, so it's new. We're trying to get our songs out there,
and one of my friends told me about this place.

Band:Sarezieh
Song:Jenna Reid
Album:Kaneko Love
Tabbed By:Tabster3000

Intro

     C   G   Am  F   C   G   Am  Em
E|---0---3---0---1---0---3---0---0---|
B|---1---3---1---1---1---3---1---0---|
G|---0---0---2---2---0---0---2---0---|
D|---2---0---2---3---2---0---2---2---|
A|---3---2---0---x---3---2---0---2---|
E|---x---3---0---x---x---3---0---0---|x2

Fill 1
      
E|---------------------|
B|----1---------0----0-|
G|---2-2--2----2-------|
D|--2---2-----3-----0--|
A|-0---------3-----2---|
E|----------1-----3----|x4

Fill 2

E|-------|
B|-------|
G|-------|
D|-------|
A|-3-2-0-|
E|-------|

Fill 3

E|----------------------------|
B|----1---------0--------0----|
G|---2-2--2----2-2-2----0-0-0-|
D|--2---2-----3---3----0---0--|
A|-0---------3--------2-------|
E|----------1--------3--------|x2

Play Fill 1 here twice and than Fill 2 once
[ Tab from: http://www.guitartabs.cc/tabs/m/misc_unsigned_bands/sarezieh_jenna_reid_tab.html ]
E|-----0--0--0--0--------------------------|
B|----1-1--1--1--1------0-------0----------|
G|---2---2--2--2--2----2-2-------0---------|
D|--2-----------------3---3---0---0--------|
A|-0-----------------3-------2------3-2-0~-|
E|------------------1-------3--------------|x3

Finger pick the intro twice here. I couldn't get this part exactly,
but it sounds like they just finger pick the Intro.

E|-------3--1--0----------|
B|----1---1--1--1---------|
G|---2-2---2--2--2--------|
D|--2---2-----------------|
A|-0---------------3-2-0~-|
E|------------------------|

Distortion

E|-0000000000000000-xxxxxxxx-xxxxxxxx-|
B|-1111111111111111-xxxxxxxx-xxxxxxxx-|
G|-2222222222222222-22222222-00000000-|
D|-2222222222222222-33333333-00000000-|
A|-0000000000000000-33333333-22222222-|
E|-xxxxxxxxxxxxxxxx-11111111-33333333-|x4

Outro(Pick this)

E|-----------------|-----------------|-3-1-0~--------|
B|---1---3---1---0-|---1---3---1---0-|---------------|
G|-0---0---2---2---|-0---0---2---0---|---------------|
D|---2---0---2---3-|---2---0---2---2-|---------------|
A|-3---2---0---0---|-3---2---0---2---|--------3-2-0~-|
E|-----------------|-----------------|---------------|

This song is played with a capo on the 5th fret. It's pretty close to the song.
Enjoy!
Comments