Misc Unsigned Bands - Sanitarium - Anymore Chords & Tabs

 

Sanitarium - Anymore Chords & Tabs

Misc Unsigned Bands Chords & Tabs

Version: 1 Type: Tab 0 ratings
1 star 2 stars 3 stars 4 stars 5 stars
comments

Sanitarium - Anymore Tab

THE BAND SANITARIUM IS A NEW BAND, BUT WE DO NOT HAVE A WEB PAGE YET, WE EXIST IN
NEW LONDON,WISCONSIN,54961, COUNTRY-UNITED STATES OF AMERICA. THE BAND MEMBERS
ARE: MATT PRAHL-LEAD GUITAR/VOCALS JENNIFER HAZELTON-BASS JASON MOSS-DRUMS,THAT
IS THE BAND MEMBERS,THAT IS ALL THE INFO THAT WE HAVE RIGHT NOW, WE DONT HAVE A
ALBUM OUT YET, BUT ARE WORKING ON IT, WE WANT TO GET A GOOD FOLLOWING BEFORE WE
GO TO THE STUDIO, SO PLEASE DO NOT DISCARD THIS!

P.M.=PALM MUTING
INTRO
E-9--9---7--7----9--9--9--7--7--7--5--5--5-----------
B-7--7---5--5----7--7--7--5--5--5--3--3--3-----------X2
G----------------------------------------------------
D----------------------------------------------------
A----------------------------------------------------
E----------------------------------------------------

P.M...................................
E----------------------------------------------------
B----------------------------------------------------
G----------------------------------------------------
D----------------------------------------------------
A-9--7--9--7--9--9--9--9-----------------------------
E-7--5--7--5--7--7--7--7--0--0--0--0--0--------------
[ Tab from: http://www.guitartabs.cc/tabs/m/misc_unsigned_bands/sanitarium_anymore_tab.html ]
E---------------------------------------------------
B---------------------------------------------------
G---------------------------------------------------X4
D---------------------------------------------------
A-9--9--9--5--5--5--3--3--3--3--3--3--5--5--5--5--5-
E-7--7--7--3--3--3--1--1--1--3--3--3--3--3--3--3--3-

VERSE(USE THIS FOR ALL THE VERSES)
E------------------------------------------------
B------------------------------------------------
G------------------------------------------------
D-9--9--9--9--7-7-7-7----------------------------
A-9--9--9--9--7-7-7-7-5/4------------------------X5
E-7--7--7--9--5-5-5-7----------------------------

CHORUS(USE FOR ALL CHORUSES)
E-7-7-7-7-7-7-9-9-9-9-9--------------------------
B-7-7-7-7-5-5-6-6-6-6-6--------------------------X2
G------------------------------------------------
D------------------------------------------------
A------------------------------------------------
E------------------------------------------------

BRIDGE
E----------------------------
B----------------------------
G----------------------------
D----------------------------X2
A-8--9--10--5-5-5-5-5-5-5-5--
E-10-11-12--5-5-5-5-5-5-5-5--

OUTRO(SAME AS THE INTRO)
THATS IT FOR THE TABS, THEY'RE PRETTY EASY, BUT CAN BE CHALLENGING,
SO PLEASE PUT THESE ON, DO NOT DISCARD PLEASE!
Comments