Misc Unsigned Bands - Running Solo - Night Of The Living Dead Chords & Tabs

 

Running Solo - Night Of The Living Dead Chords & Tabs

Misc Unsigned Bands Chords & Tabs

Version: 1 Type: Tab 0 ratings
1 star 2 stars 3 stars 4 stars 5 stars
comments

Running Solo - Night Of The Living Dead Tab

   
*PLEASE NOTE*
Use this tab only for private study, scholarship, or research.

Song: Night Of The Living Dead
Band: Running Solo

Tuning: 1/2 step down

Here is a song that i came up with. Sounds sumthin' like Iron Maiden and Metallica together.

------------------------------|
------------------------------|
--4---2---0-------------------|
--4---2---0---2---4~~~~~~-----|
--2---0---x---2---4~~~~~~-----|
----------3---0---2~~~~~~-----|

-------------------------------|
-------------------------------|
--4-----4-4-4-4-4-4-4-4-4-4-4--|
--4-----4-4-4-4-4-4-4-4-4-4-4--|
--2-----2-2-2-2-2-2-2-2-2-2-2--|
-------------------------------|
     repeat 3x  then this fill
--------------|----------------|
--------------|----------------|
--------2--4-.|----------------|
--4-----2--4-.|-2-2--3--4------|
--4-----0--2--|-2-2--3--4------|
--2-----------|-0-0--1--2------|

After playing that part like 20x play this riff
-------------------------------|
-------------------------------|
------------------------------.|
--5-------7----5----4/5/4-2-4-.|
--5-------7----5----4/5/4-2-4--|
--3-------5----3----2/3/2-0-2--|

     repeat 3x  then this fill
--------------|----------------|
--------------|----------------|
--------2--4-.|----------------|
--4-----2--4-.|-2-2--3--4------|
--4-----0--2--|-2-2--3--4------|
--2-----------|-0-0--1--2------|

After playing that part like 20x play this riff
-------------------------------|
-------------------------------|
------------------------------.|
--5-------7----5----4/5/4-2-4-.|
--5-------7----5----4/5/4-2-4--|
--3-------5----3----2/3/2-0-2--|
[ Tab from: http://www.guitartabs.cc/tabs/m/misc_unsigned_bands/running_solo_night_of_the_living_dead_tab.html ]
Solo (A minor)
---------------------------------------------------------|
---------------------------------------------------------|
---------------------------------------------------------|
-----------12-14-15-14-12--12h14p12----12h14p12----------|
--12-14-15--------------------------15----------15-14-15-|
---------------------------------------------------------|

---------------------------------------------------------------16-17-19~~~-|
------------------------------------------------15-17-18-17-18-------------|
-----------13-14--13h14p13----13-14-16-17p16h17----------------------------|
--12-14-15-----------------15----------------------------------------------|
---------------------------------------------------------------------------|
---------------------------------------------------------------------------|

--16h17p16----------------------------------------------------------17/--|
-----------18-17-18p17p15------------------------------------------------|
--------------------------17p16/14p13------------------------------------|
--------------------------------------15p14h15p14-12---------------------|
-----------------------------------------------------15-14-12~~~~/-------|
-------------------------------------------------------------------------|

     repeat 3x  then this fill
--------------|----------------|
--------------|----------------|
--------2--4-.|----------------|
--4-----2--4-.|-2-2--3--4------|
--4-----0--2--|-2-2--3--4------|
--2-----------|-0-0--1--2------|

After playing that part like 20x play this riff
-------------------------------|
-------------------------------|
------------------------------.|
--5-------7----5----4/5/4-2-4-.|
--5-------7----5----4/5/4-2-4--|
--3-------5----3----2/3/2-0-2--|

Outro
------------------------------|
------------------------------|
--4---2---0-------------------|
--4---2---0---2---4~~~~~~-----|
--2---0---x---2---4~~~~~~-----|
----------3---0---2~~~~~~-----|

tremelo pick these
--------------------------------|
--------------------------------|
--4-4-4-4-4-4-4-4-4-4-4-4-4-4-4-|
--4-4-4-4-4-4-4-4-4-4-4-4-4-4-4-|
--2-2-2-2-2-2-2-2-2-2-2-2-2-2-2-|
--------------------------------|

Notation used:
/-slide
p-pull off
h-hammer on
~-vibrato
Comments