Misc Unsigned Bands - Rights To Fairmont - Heartache Lasts Forever Chords & Tabs

 

Rights To Fairmont - Heartache Lasts Forever Chords & Tabs

Misc Unsigned Bands Chords & Tabs

Version: 1 Type: Tab 0 ratings
1 star 2 stars 3 stars 4 stars 5 stars
comments

Rights To Fairmont - Heartache Lasts Forever Tab

   
new band from pompano beach florida. you can check them out at 
rightstofairmont.com or email at rightstofairmont@yahoo.com


Band:Rights To Fairmont
Album:RIGHTS TO FAIRMONT
Song:Heartache Lasts Forever

Tuning:
D,A,D,G,B,E
H=hammer on
s=slide




intro:
e[------------------------------------------------------]
B[------------------------------------------------------]
G[-10-10-10-10-10-10-10---------------------------------]
D[-10-10-10-10-10-10-10-8-8-8-8-8-8-8-s-7-7-7-7-s-8-8-s-]
A[-8--8--8--8--8--8--8--8-8-8-8-8-8-8-s-7-7-7-7-s-8-8-s-]
D[----------------------8-8-8-8-8-8-8-s-7-7-7-7-s-8-8-s-]

e[-------]
B[-------]
G[-------]
D[-10-10-]repeat
A[-10-10-]
D[-10-10-]

verse:
e[----------------------------------------------]
B[----------------------------------------------]
G]-10-------------------------------------------]
D]-10------------------7------------------------]
A]-8-------------------7------------------------]
D]---------------------7------------------------]
   barely breathing my fists cant take much more

e[-----------------------------]
B[-----------------------------]
G[-----------------------------]
D[-3----------------------0----]
A[-3----------------------0----]
D[-3----------------------0----]
   lying face down on the floor

e[--------------------------------------------------]
B[--------------------------------------------------]
G]-10-----------------------------------------------]
D]-10-------------------------7---------------------]
A]-8--------------------------7---------------------]
D]----------------------------7---------------------]
   everything you thought you knew is gone until now

e[---------------------------------]
B[---------------------------------]
G[---------------------------------]
D[-3--------------------------0----]
A[-3--------------------------0----]
D[-3--------------------------0----]
   why does deception seem so clear

chorus:( listen to cd for palm mute pattern)
e[-----------------------------------------------]
B[-----------------------------------------------]
G[-10----------------10---------------------10---]
D[-9-----------------9----------------------9----]
A[-8-----------------7----------------------8----]
D[-0-----------------7----------------------0----]
   how can this be the last time you see me alive

e[------]
B[------]
G[-10---]repeat
D[-9----]
A[-7----]
D[-7----]

chorus outro:
e[---------------------------------------------]
B[---------------------------------------------]
G[------------9---------------------9----------]
D[---10-10-10---10-10-10---10-10-10---10-10-10-]
A[-8---------------------8---------------------]
D[---------------------------------------------]

e[---------------------------------------------]
B[---------------------------------------------]
G[------------9---------------------9----------]repeat
D[---10-10-10---10-10-10---10-10-10---10-10-10-]
A[---------------------------------------------]
D[-7---------------------7---------------------]
verse 2 same as verse 1:

brdige:
e[---------------------------------]
B[---------------------------------]
G[---------------------------------]
D[---------5---------------5-------]
A[---3-3-3---3-3-3---3-3-3---3-3-3-]
D[-3---------------3---------------]

e[-----------------------------------]
B[-----------------------------------]
G[-----------------------------------]
D[---------10---------------10-------]
A[---7-7-7----7-7-7---7-7-7----7-7-7-]
D[-7----------------7----------------]
[ Tab from: http://www.guitartabs.cc/tabs/m/misc_unsigned_bands/rights_to_fairmont_heartache_lasts_forever_tab.html ]
e[-----------------------------------------------------------------]
B[-----------------------------------------------------------------]
G[-----------------------------------------------------------------]
D[---------9---------------9---------------9---------------9-------]
A[---5-5-5---5-5-5---5-5-5---5-5-5---5-5-5---5-5-5---5-5-5---5-5-5-]
D[-5---------------5---------------5---------------5---------------]

e[---------------------------------]
B[---------------------------------]
G[---------------------------------]
D[---------5---------------5-------]
A[---3-3-3---3-3-3---3-3-3---3-3-3-]
D[-3---------------3---------------]
   high tide lasts forever

e[-----------------------------------]
B[-----------------------------------]
G[-----------------------------------]
D[---------10---------------10-------]
A[---7-7-7----7-7-7---7-7-7----7-7-7-]
D[-7----------------7----------------]
   but the waters getting warm all the 

e[-----------------------------------------------------------------]
B[-----------------------------------------------------------------]
G[-----------------------------------------------------------------]
D[---------9---------------9---------------9---------------9-------]
A[---5-5-5---5-5-5---5-5-5---5-5-5---5-5-5---5-5-5---5-5-5---5-5-5-]
D[-5---------------5---------------5---------------5---------------]
   thoughts from yesterday are getting lost out in the storm

e[---------------------------------]
B[---------------------------------]
G[---------------------------------]
D[---------5---------------5-------]
A[---3-3-3---3-3-3---3-3-3---3-3-3-]
D[-3---------------3---------------]
                             in the 

e[-----------------------------------]
B[-----------------------------------]
G[-----------------------------------]
D[---------10---------------10-------]
A[---7-7-7----7-7-7---7-7-7----7-7-7-]
D[-7----------------7----------------]
   storm that has drownd all the

e[-----------------------------------------------------------------]
B[-----------------------------------------------------------------]
G[-----------------------------------------------------------------]
D[---------9---------------9---------------9---------------9-------]
A[---5-5-5---5-5-5---5-5-5---5-5-5---5-5-5---5-5-5---5-5-5---5-5-5-]
D[-5---------------5---------------5---------------5---------------]
   hopes of ever getting anywhere or ever getting anything

breakdown:
e[-----------------------------------------------]
B[-----------------------------------------------]
G[-----------------------------------------------]
D[-3-3-3-----3-3-3-------7-7-7------7-7-7--------]
A[-3-3-3--7--3-3-3--7-7--7-7-7--12--7-7-7--12-12-]
D[-3-3-3-----3-3-3-------7-7-7------7-7-7--------]

e[-------------------------]
B[-------------------------]
G[-------------------------]
D[-5-5-5------5-5-5--------]
A[-5-5-5--10--5-5-5--10-10-]
D[-5-5-5------5-5-5--------]

e[-----------------------------------------------]
B[-----------------------------------------------]
G[-----------------------------------------------]
D[-3-3-3-----3-3-3-------7-7-7------7-7-7--------]
A[-3-3-3--7--3-3-3--7-7--7-7-7--12--7-7-7--12-12-]
D[-3-3-3-----3-3-3-------7-7-7------7-7-7--------]
repeat two more times, then chorus one last time


lyrics: 

verse 1:
barely breathing
my fists cant take much more
lying facedown on the floor
everything you thought you knew
is gone until now
why does deception seem so clear
chorus:
how can this be the last time you see me alive
how can this be the last time you see me alive
verse 2:
my heart it is so empty
while home just feels so alone
rejection weighs so heavy on my head
go along with this because i am done
chorus:
how can this be the last time you see me alone
how can this be the last time you see me alone
bridge:
high tide lasts forever while the waters getting warm all the thoughts
from yesterday are getting lost out in the storm
in the storm that has drownd all the hopes of ever
getting anywhere or ever getting anything
chorus:
how can this be the last time you see me alone
how can this be the last time you see me alone
Comments