Misc Unsigned Bands - Remnants Of Tomorrow - Exorsism Chords & Tabs

 

Remnants Of Tomorrow - Exorsism Chords & Tabs

Misc Unsigned Bands Chords & Tabs

Version: 1 Type: Tab 0 ratings
1 star 2 stars 3 stars 4 stars 5 stars
comments

Remnants Of Tomorrow - Exorsism Tab

   
This band is fresh out of the bay area. They are signed to Mayhem Records, and
can be reached at remnants.rock.com
-------------------------------------------------------------------------------
			Exorsism - ROT (Remnants Of Tommorow
-------------------------------------------------------------------------------
Tabbed by: Me
Email: rancid_rush@pacbell.net
[ Tab from: http://www.guitartabs.cc/tabs/m/misc_unsigned_bands/remnants_of_tomorrow_exorsism_tab.html ]
Tuning: Standard
Guitar 1
e|---------------------------------------------------------------------------|
B|---------------------------------------------------------------------------|
G|---------------------------------------------------------------------------|
D|-33---33---33--33--33---33---33---33--33--33-------------------------------|
A|-33---33---33--33--33---33---33---33--33--33--44--44---44--44-5~~~~--------|
E|-33---33---33--33--33---33---33---33--33--33--22--22---22--22-3~~~~--------|
 Guitar 2   
e|-7-7-0-8-0-7/8\7-0-7-0-7/8\7-0-7-0--0-0--0-0---0-0--0-0-1~~~~~-------------|
B|---------------------------------------------------------------------------|
G|---------------------------------------------------------------------------|
D|---------------------------------------------------------------------------|
A|---------------------------------------------------------------------------|
E|------------------------------------------------------------Repeat 3 Times-|
  CHORUS: (both Guitars)                                                             
e|---------------------------------------------------------------------------|
B|---------------------------------------------------------------------------|
G|---------------------------------------------------------------------------|
D|---------------------------------------------------------------------------|
A|222222222222222222-444444444-55555-777-------------------------------------|
E|000000000000000000-222222222-33333-555-------------------------------------|

Lyrics:
Lying in desperation,
Existing only in your mind.
Smothing is rising,
Something unind.
It knows who I am,
It knows my doubts.
When will this thing be released?
When will it get out?
GO!

Living in hatred,
It dwells on your fears.
It's slowly rising, 
It's still unclear.
I know the reason,
I curse the day.
When it entangled me,
And made be who I am today.
Go!

I can't see clear
Get me out of here
I need an exorsosm
Break free from this parasite
I need to make an incision
Give me a new hinesight
AAAAAHHHHH~!!!!!!

| /  slide up
| \  slide down
| h  hammer-on
| p  pull-off
| ~  vibrato
| +  harmonic
| x  Mute note
===============================================================================
Comments