Misc Unsigned Bands - Rebels - Blue Haze Chords & Tabs

 

Rebels - Blue Haze Chords & Tabs

Misc Unsigned Bands Chords & Tabs

Version: 1 Type: Tab 0 ratings
1 star 2 stars 3 stars 4 stars 5 stars
comments

Rebels - Blue Haze Tab

   
Intro:

e---|
B---|
G---|
D-3-|
A-3-|
E-1-| x 8

e-----------------|
B---8-------------|
G--7--------------|
D-9--7-5----------|
A-------5-5/7-----|
E--------0--- x 2-|

e--------------------|
B---8--8--8-7--------|
G--7--7--7---9-7-----|
D-9--9--9------------|
A--------------------|
E--------------- x 2-|

e----------------------------------------|
B-8-8-8-8-8-8-8-8------------------------|
G-7-7-7-7-7-7-7-7------------------------|
D-6-6-6-6-6-6-6-6----5-5-5-----7-7-7-----|
A-7-7-7-7-7-7-7-7----5-5-5-----7-7-7-----|
E----------------0-0-3-3-3-3-3-5-5-5 x 3-|

Solo:

e-2/3/4/5/6/7/8/9/10/11/12-------------------------------------------------|
B-------------------------2/3/4/5/6/7/8/9/10/11/12-------------------------|
G-------------------------------------------------2/3/4/5/6/7/8/9/10/11/12-|
D--------------------------------------------------------------------------|
A--------------------------------------------------------------------------|
E--------------------------------------------------------------------------|
[ Tab from: http://www.guitartabs.cc/tabs/m/misc_unsigned_bands/rebels_blue_haze_tab.html ]
e--------------------------------------------------------------------------|
B--------------------------------------------------------------------------|
G--------------------------------------------------------------------------|
D-2/3/4/5/6/7/8/9/10/11/12-------------------------------------------------|
A-------------------------2/3/4/5/6/7/8/9/10/11/12-------------------------|
E-------------------------------------------------2/3/4/5/6/7/8/9/10/11/12-|

e-2-3-4-5-6-7-8-9-10-11-12-|
B-2-3-4-5-6-7-8-9-10-11-12-|
G-2-3-4-5-6-7-8-9-10-11-12-|
D-2-3-4-5-6-7-8-9-10-11-12-|
A-2-3-4-5-6-7-8-9-10-11-12-|
e-2-3-4-5-6-7-8-9-10-11-12-|

e-12-12-11-12------------------------|
B------------12-13-12-13-12-10-8-3-5-|
G------------------------------------|
D------------------------------------|
A------------------------------------|
E------------------------------------|

End of Solo

e-----------------|
B---8-------------|
G--7--------------|
D-9--7-5----------|
A-------5-5/7-----|
E--------0--- x 2-|

e--------------------|
B---8--8--8-7--------|
G--7--7--7---9-7-----|
D-9--9--9------------|
A--------------------|
E--------------- x 2-|

e----------------------------------------|
B-8-8-8-8-8-8-8-8------------------------|
G-7-7-7-7-7-7-7-7------------------------|
D-6-6-6-6-6-6-6-6----5-5-5-----7-7-7-----|
A-7-7-7-7-7-7-7-7----5-5-5-----7-7-7-----|
E----------------0-0-3-3-3-3-3-5-5-5 x 3-|

Outro:

e------------------------------------------|
B-8-8-8-8-8-8-8-8--------------------------|
G-7-7-7-7-7-7-7-7--------------------------|
D-6-6-6-6-6-6-6-6----5-5-5-----7-7-7-----2-|
A-7-7-7-7-7-7-7-7----5-5-5-----7-7-7-----2-|
E----------------0-0-3-3-3-3-3-5-5-5-5-5-0-|
Comments