Misc Unsigned Bands - Reaching Without Arms - March Chords & Tabs

 

Reaching Without Arms - March Chords & Tabs

Misc Unsigned Bands Chords & Tabs

Version: 1 Type: Tab 0 ratings
1 star 2 stars 3 stars 4 stars 5 stars
comments

Reaching Without Arms - March Tab

   
Reching without Arms
www.reachingwithoutarms.tk
Lakeland, FL
Song: March (All evil Dies)
Album: Horseshoes and Handgrenades

Tuning: C G C F A D
(t)= trill picking
%= REPEAT
*= VIBRATO
(ph)= PINCH HARMONIC

    Verse Riff
D------------------------------------------
A------------------------------------------
F------------------------------------------
C------------------------------------------
G-3^2---3^2-3^2-3^2--3^2-3^2---5^6---3^5---
C-3-2---3-2-3-2-3-2--3-2-3-2---5-6---3-5---


    Chorus Riff
                               PM...
D----------------------------------------------------------------
A----------------------------------------------------------------
F-------------------------------------12-------14------15-----17-
C-------------------------------------X----%---X----%--X---%--X--
G--0^7^8---0^5^0---0^3^5--0^3^2--0-0--10-------12------13-----15-
C--0-7-8---0-5-0---0-3-5--0-3-2--0-0-----------------------------

   PRE-BRIDGE
[ Tab from: http://www.guitartabs.cc/tabs/m/misc_unsigned_bands/reaching_without_arms_march_tab.html ]
D-------------------------------------------------------
A-------------------------------------------------------
F-------------------------------------------------------
C-------------------------------------------------------
G-0-0---0-0-0-0---0-0--0-0-0-0--------8(t)-------3(t)---
C-0-0---0-0-0-0---0-0--0-0-0-0----8(t)-------3(t)-------       

 
   BRIDGE

D------------------------
A------------------------
F------------------------
C------------------------
G--0--0--0---0-0-0-0-0---
C--0--0--0---0-0-0-0-0---    

   SOLO(OVER BRIDGE)part 1

D---------------------------------
A---------------------------------
F---------------------------------
C----14---15----14--15--17--14----
G-12---------12-------------------
C---------------------------------

   SOLO part 2

D-------------------------------------------------
A-------------------------------------------------
F-------------------------------------------------
C-------------------------------------------------
G--17-18--17-15-14----17--18-17-15-17-------------
C-------------------------------------------------

  SOLO PART 3
D---------------------------------------
A---------------------------------------
F---------------------------------14(ph)
C---------------------------------------
G-0^5^7--0^7^9--0^9^10--0^10^12*--------
C---------------------------------------
Comments