Misc Unsigned Bands - Rcasket Architects - Rapture Chords & Tabs

 

Rcasket Architects - Rapture Chords & Tabs

Misc Unsigned Bands Chords & Tabs

Version: 1 Type: Tab 0 ratings
1 star 2 stars 3 stars 4 stars 5 stars
comments

Rcasket Architects - Rapture Tab

-----------------------------------------------------------------------------
                                    RAPTURE
-----------------------------------------------------------------------------
Caskect architects is an incridibly underground band fromwarwick. THey have one album,
A coctail of ravage delight. They are formally known as night Terrors.

e|0-------3-h-5------5-h-7--------7-h-8-p-7-------3/--55/--7/--5/--3---------|
B|--0------------0---------0----------------0------------------------0-------|
G|-----0-----------0---------0-----------------0------------------------0----|
D|---------------------------------------------------------------------------|
A|---------------------------------------------------------------------------|
E|---------------------------------------------------------------------------|

[ Tab from: http://www.guitartabs.cc/tabs/m/misc_unsigned_bands/rcasket_architects_rapture_tab.html ]
e|-3p-2------2h3p0--0--------------------------------------------------------|
B|------0-----------0--------------------------------------------------------|
G|---------0--------0--------------------------------------------------------|
D|----------------------3--4--6--8--8/9/8---4-6-8-6-4--4-3-3-2---------------|
A|----------------------3--4--6--8--8/9/8---4-6-8-6-4--4-3-3-2---------------|
E|----------------------1--2--4--6--6/7/6---2-4-6-4-2--2-1-1-0---------------|

                 This peice is really fast. PLecking basically. Easiest w/ a thin pick.

e|--12 12-12-15-12-12-14-12-12------------------12-12-12-17-12-12-15-12-12----|
B|----------------------------15-12-12-14-12-12-------------------------------|
G|----------------------------------------------------------------------------|
D|----------------------------------------------------------------------------|
A|----------------------------------------------------------------------------|
E|----------------------------------------------------------------------------|

e|15-12-12-14/15-------------------------------------------------------------|
B|---------14/15-------------------------------------------------------------|
G|---------------------------------------------------------------------------|
D|---------------------------------------------------------------------------|
A|---------------------------------------------------------------------------|
E|---------------------------------------------------------------------------|

THats the intro. Have fun enjoy and see them play sometime. Their a local band from
warwick ny but they tour elsewheres www.caskectarchitects.com
Comments