Misc Unsigned Bands - Punkle Unk - Self Titled Chords & Tabs

 

Punkle Unk - Self Titled Chords & Tabs

Misc Unsigned Bands Chords & Tabs

Version: 2 Type: Tab 0 ratings
1 star 2 stars 3 stars 4 stars 5 stars
comments

Punkle Unk - Self Titled Tab

   
 -------------------------------------------------------------------------------
			     Track 7 - Punkle Unk 
-------------------------------------------------------------------------------

Tabbed by: Sol Pachner

Band Members: 

Sol Pachner...    Guitar/vocals
William Verity... Bass guitar 
Niall Matthews... Drums/Percussion 
Email:

Tuning: Guitar: 1 step down Drop C : 6C 5G 4C 3F 2A 1D
          Bass: 1 step down Drop C : 4C 3G 2C 1F


Random Intro Part: (slower than the rest)

d|-----------------------------------------------------------------|
A|-----------------------------------------------------------------|
F|-----------9\8\7-----------8\7\6-----------7\6\5-----------8\7\6-|
C|-----7-6-8-----------6-5-7-----------5-4-6-----------6-5-7-------|
G|---7---------------6---------------5---------------6-------------|
C|-6---------------5---------------4---------------5---------------|

d|-----------------------------------------------------------------|
A|-----------------------------------------------------------------|
F|-----------------------------------------------------------------|
C|-----------------------------------------------------------------|
G|-----------------------------------------------------------------|
C|-6---6---6---5---4---8---6---3---6---6---6---5---4---8---6---3---|

Verse pt 1: 

d|-----------------------------------------------------------------|
A|-----------------------------------------------------------------|
F|-----------------------------------------------------------------|
C|-------6-----------------4-5-4---------6-----------------4-5-4---|
G|-----------7-6-------4-5-------5-----------7-6-------4-5-------5-|
C|-6---6-----------4---------------6---6-----------4---------------|

Verse pt 2:

d|-----------------------------------------------------------------|
A|-----------------------------------------------------------------|
F|-----------------------------------------------------------------|
C|-------8-7-6-------------------------8-7-6-----------------------|
G|-----6-------6-7-6-----------------6-------6-7-6---4---3-2-2^0---|
C|-0-----------------------------0---------------------------------|

Bridge:
[ Tab from: http://www.guitartabs.cc/tabs/m/misc_unsigned_bands/punkle_unk_self_titled_tab_ver_2.html ]
d|------------------------------------------------------------------|
A|------------------------------------------------------------------|
F|------------------------------------------------------------------|
C|------------------------------------------------------------------|
G|-5/6--7-----7^-8\0---------------6---6---6------------------------|
C|-0-------------------------------------------0---7---6---5---0----|

d|------------------------------------------------------------------|
A|------------------------------------------------------------------|
F|------------------------------------------------------------------|
C|-8---8---8-----------------------8---8---8---0---7---6---5---0----|
G|-6---6---6---0---7---6---5---0---6---6---6---0---7---6---5---0----|
C|-0-----------0---7---6---5---0---------------0---7---6---5---0----|

Chorus: (louder & more distorted)

d|------------------------------------------------------------------|
A|------------------------------------------------------------------|
F|-8-8-----8-8-----8-8-------------8-8-----8-8-----8-8--------------|
C|-8-8076508-8076508-8076501-1057608-8076508-8076508-8076501-105760-|
G|-6-6076506-6076506-6076501-1057606-6076506-6076506-6076501-105760-|
C|-0--07650---07650---076501-105760---07650---07650---076501-105760-|

Those are all the guitar parts.

+++++++++++++++++++++++++++++++++++++++++++++++++++++++++++++++++++++

  ----|\ BASS TAB /|----

 Verse: 

F|------------------------------------------------------------------|
C|------------------------------------------------------------------|
G|------------------------------------------------------------------|
C|-6---6---6---5---4---8---6---3---6---6---6---5---4---8---6---3----|

 Bridge:
  
F|------------------------------------------------------------------|
C|------------------------------------------------------------------|
G|-6---6---6-----------------------6---6---6------------------------|
C|-------------0---7---6---5---0---------------0---7---6---5---0----|

 Chorus:

F|------------------------------------------------------------------|
C|------------------------------------------------------------------|
G|-6-6-----6-6-----6-6-------------6-6-----6-6-----6-6--------------|
C|----07650---07650---076501-105760---07650---07650---076501-105760-|

Those are all the bass parts.

=====================================================================

Guitar song order:

Intro      X1
Verse pt 1 X1
Verse pt 2 X1
Bridge     X1
Chorus     X1
Verse pt 1 X3
Verse pt 2 X1
Chorus     X1
Verse Pt 1 X3
Verse pt 2 X1
Chorus     X2

Bass song order:

Intro     (silence)
Verse      X2
Bridge     X2
Chorus     X1
Verse      X3
Bridge     X1
Chorus     X1
Verse      X3
Bridge     X1
Chorus     X2 



| ^  bend
| /  slide up
| \  slide down
| h  hammer-on
| p  pull-off
| ~  vibrato
| +  harmonic
| x  Mute note
=====================================================================
Comments