Misc Unsigned Bands - Pretty Chimney - Of What They Are Chords & Tabs

 

Pretty Chimney - Of What They Are Chords & Tabs

Misc Unsigned Bands Chords & Tabs

Version: 1 Type: Tab 0 ratings
1 star 2 stars 3 stars 4 stars 5 stars
comments

Pretty Chimney - Of What They Are Tab

Pretty Chimney is a small band from peterborough who havent written many songs yet
this is one of our first and we are stiil working on the rest


Guitar 1&2
Intro
E----------------------------------------------------------------------|
B----------------------------------------------------------------------|
G----------------------------------------------------------------------|
D----0---0---0---0----0----0-00000-00000-00-0-0--0-0-0-0-0-0-0---------|
A---9---9---7---7---10---12--99999-77777-99-1010-12121212121212--------|
E--0---0---0---0---0----0----00000-00000-00-0-0--0-0-0-0-0-0-0---------|

1st Guitar
Pre-Verse/Verse Pre verse x1  Verse x6
E----------------------------------------------------------------------|
B----------------------------------------------------------------------|
G----------------------------------------------------------------------|
D--999999-111111111111-121212121212-777777-141414141414141414141414----|
A--999999-111111111111-121212121212-777777-141414141414141414141414----|
E--777777-9-9-9-9-9-9--101010101010-555555-121212121212121212121212----|

2nd Guitar
Pre-chorus once verse has been played 4 times
E----------------------------------------------------------------------|
B----------------------------------------------------------------------|
G----------------------------------------------------------------------|x2
D----0---0---0---0----0----0-00000-00000-00-0-0--0-0-0-0-0-0-0---------|
A---9---9---7---7---10---12--99999-77777-99-1010-12121212121212--------|
E--0---0---0---0---0----0----00000-00000-00-0-0--0-0-0-0-0-0-0---------|

Chorus 1st&2nd Guitar
E---------------------------------------------------------------------|
B---------------------------------------------------------------------|
G----------------------777777-----------------------------------------|
D--999999-111111111111-777777-77-999999-------------------------------|x2
A--999999-111111111111-555555-77-999999-------------------------------|
E--777777-9-9-9-9-9-9---------55-777777-------------------------------|

Pre-Verse Guitar 1
E----------------------------------------------------------------------|
B----------------------------------------------------------------------|
G----------------------------------------------------------------------|
D--999999-111111111111-121212121212-777777-141414141414141414141414----|x6
A--999999-111111111111-121212121212-777777-141414141414141414141414----|
E--777777-9-9-9-9-9-9--101010101010-555555-121212121212121212121212----|
[ Tab from: http://www.guitartabs.cc/tabs/m/misc_unsigned_bands/pretty_chimney_of_what_they_are_tab.html ]
Guitar 2 1st solo
E-----------------------------------------------------------------------------------------|
B-----------------------------------------------------------------------------------------|
G-----------------------------------------------12b---------------------------------------|
D------------------12129b-----------------12129b---12-9----------------x1 Then Pre-verse--| x5
A------9999-------------------9999----------------------9-12b-----------------------------|
E--7777----12121212-------7777----12121212------------------------------------------------|

Chorus
E---------------------------------------------------------------------|
B---------------------------------------------------------------------|
G----------------------777777-----------------------------------------|
D--999999-111111111111-777777-77-999999-------------------------------|x2
A--999999-111111111111-555555-77-999999-------------------------------|
E--777777-9-9-9-9-9-9---------55-777777-------------------------------|

Bridge                  x8 very fast
E--------------------|-------|-----------------------------------------|
B--------------------|-------|-----------------------------------------|
G----77-------77-----|---7---|-----------------------------------------|
D-99-77-77-99-77-77--|-9-7-7-|-----------------------------------------|
A-99-55-77-99-55-77--|-9-5-7-|-----------------------------------------|
E-77----55-77----55--|-7---5-|-----------------------------------------|

Guitar 1 x2
E----------------------------------------------------------------------|
B----------------------------------------------------------------------|
G----------------------------------------------------------------------|
D----0---0---0---0----0----0-00000-00000-00-0-0--0-0-0-0-0-0-0---------|
A---9---9---7---7---10---12--99999-77777-99-1010-12121212121212--------|
E--0---0---0---0---0----0----00000-00000-00-0-0--0-0-0-0-0-0-0---------|

Guitar 2 after guitar one has played once
E----------------------------------------------------------------------|
B----------------------------------------------------------------------|
G----------------------------------------------------------------------|
D--999999-111111111111-121212121212-777777-141414141414141414141414----|
A--999999-111111111111-121212121212-777777-141414141414141414141414----|
E--777777-9-9-9-9-9-9--101010101010-555555-121212121212121212121212----|

Chorus Guitar 1                  1st Time             2nd time
E-------------------------------|---------|----------------------------|
B-------------------------------|---------|----------------------------|
G----------------------777777---|---------|----------------------------|
D--999999-111111111111-777777-77|999999---|-2222222222-----------------|x2
A--999999-111111111111-555555-77|999999---|-2222222222-----------------|
E--777777-9-9-9-9-9-9---------55|777777---|-0000000000-----------------|

Guitar 2 plays after 1 of guitar one
E----------------------------------------------------------------------|
B----------------------------------------------------------------------|
G----------------------------------------------------------------------|
D----0---0---0---0----0----0-00000-00000-00-0-0--0-0-0-0-0-0-0---------|
A---9---9---7---7---10---12--99999-77777-99-1010-12121212121212--------|
E--0---0---0---0---0----0----00000-00000-00-0-0--0-0-0-0-0-0-0---------|


By Chris Walker
Of Pretty Chimney
1st song
Comments