Misc Unsigned Bands - Presence Of Mind - Hope Chords & Tabs

 

Presence Of Mind - Hope Chords & Tabs

Misc Unsigned Bands Chords & Tabs

Version: 1 Type: Tab 0 ratings
1 star 2 stars 3 stars 4 stars 5 stars
comments

Presence Of Mind - Hope Tab

   
Presence Of Mind
Hope
Lyrics By JR LaFollette
Music By JR LaFollette
tabbed by JR (soggypeaches@yahoo.com)


Tuned Down 1/2

e---------------------------------|
b---------------------------------|
g---------------------------------|
d-2-2-2-2-2-2-2-2-6-6-6-6-6-6-6-6-|
a-0-0-0-0-0-0-0-0-4-4-4-4-4-4-4-4-|
e---------------------------------|
PM...............................
You walk downtown alone
so you could hear the sounds
You act like everything is new to you
So you can notice that im not around

You say you met this brand new person
And you say that you love him alot
I try to change for you to come back home
but no matter what i do i can only give you what i've got

e-0~-----0~-----0~-----0~
b-0~-----0~-----0~-----0~
g-9~-----8~-----9~-----0~
d-9~-----X~-----9~-----2~
a-7~-----6~-----7~-----2~
e-0~-----0~-----0~-----0~
The only thing that i have is the hope of a brand hew day
The only thing that i have is the hope to take away the pain


e---------------------------------|
b---------------------------------|
g---------------------------------|
d-2-2-2-2-2-2-2-2-6-6-6-6-6-6-6-6-|
a-0-0-0-0-0-0-0-0-4-4-4-4-4-4-4-4-|
e---------------------------------|

You say that things have taken a wrong turn
You say that things have gone down hill
But i say the only thing that has truly ever changed
is the way we talk about the only things that stay the same
[ Tab from: http://www.guitartabs.cc/tabs/m/misc_unsigned_bands/presence_of_mind_hope_tab.html ]
e-0-0-0-0-0-0-0-0-0-0-0-0-0-0-0-0-|
b-0-0-0-0-0-0-0-0-0-0-0-0-0-0-0-0-|
g-9-9-9-9-8-8-8-8-9-9-9-9-2-2-2-2-|
d-9-9-9-9-X-X-X-X-9-9-9-9-2-2-2-2-|
a-7-7-7-7-6-6-6-6-7-7-7-7-0-0-0-0-|
e-0-0-0-0-0-0-0-0-0-0-0-0-0-0-0-0-|
 The only thing that i have is the hope of a brand hew day
The only thing that i have is the hope to take away the pain


e---------------------------------|
b-0-0-0-0-0-0-0-0-5-5-5-5-5-5-5-5-|
g-2-2-2-2-2-2-2-2-6-6-6-6-6-6-6-6-|
d-2-2-2-2-2-2-2-2-6-6-6-6-6-6-6-6-|
a-0-0-0-0-0-0-0-0-4-4-4-4-4-4-4-4-|
e---------------------------------|

Roll and twirl in the black and the white
Roll and twirl until you die
Roll and twirl for your happy life to come
Now its hard to watch you live a lie

Keep on living in the mess that you've made
Keep on living in your free time
Keep on living in your white trash apartment
And wait for time to pass you by


e-0-0-0-0-0-0-0-0-0-0-0-0-0-0-0-0-|
b-0-0-0-0-0-0-0-0-0-0-0-0-0-0-0-0-|
g-9-9-9-9-8-8-8-8-9-9-9-9-2-2-2-2-|
d-9-9-9-9-X-X-X-X-9-9-9-9-2-2-2-2-|
a-7-7-7-7-6-6-6-6-7-7-7-7-0-0-0-0-|
e-0-0-0-0-0-0-0-0-0-0-0-0-0-0-0-0-|
 The only thing that i have is the hope of a brand hew day
The only thing that i have is the hope to take away the pain

e-0-0--0-0-|
b-0-0--0-0-|
g-9-9--9-9-|
d-9-9--9-9-|
a-7-7--7-7-|
e-0-0--0-0-|
 I dont care about them i only care about you
 and the wonderful things that you do
Comments