Misc Unsigned Bands - Poopshoot Dog Cannon - Meat Cleaver 9x Chords & Tabs

 

Poopshoot Dog Cannon - Meat Cleaver 9x Chords & Tabs

Misc Unsigned Bands Chords & Tabs

Version: 1 Type: Tab 0 ratings
1 star 2 stars 3 stars 4 stars 5 stars
comments

Poopshoot Dog Cannon - Meat Cleaver 9x Tab

Poopshoot dog Cannon are bigger than a local band but i dont think they play out side of
Michigan, Wisconsin, Ohio area

beat f*cker usually plays this in drop D
but the other guitar(i think hs name is just john)is the same basic stuff just in standard

Intro/bridge

E--0-0-------------0-0----------------------------------|
B--0-0-------------0-0----------------------------------|
G--0-0-----2-------0-0----------------------------------|
D--0-0-----2-9-----0-0-----9\7             -------------|
A--0-0-----2--7----0-0-----7\5 4times then --5--3--2--0-|
E--0-0-----2-------0-0-0-0----             --5--3--2--0-|
  pm........    .........                   ..........

verse

E--7------7--2-2--------0---0----------------------------------|
B--7-----7---2-2--------0---0----------------------------------|
G--7----7----2-2--------0---0----------------------------------|
D--7---7-----2-2---9----0---0-----9\7             -------------|
A--7--7------2-2--7-----0---0----7\5 4times then --5--3--2--0--|
E--7-7-------2-2--------0---0------------------- --5--3--2--0--|
[ Tab from: http://www.guitartabs.cc/tabs/m/misc_unsigned_bands/poopshoot_dog_cannon_meat_cleaver_9x_tab.html ]
chorus
E--0-0-0-0-0---------------------------------------------------------|
B--0-0-0-0-0---------------------------------------------------------|
G--0-0-0-0-0----5-5-5-5-5-----12-12-12-------------------------------|
D--0-0-0-0-0----5-5-5-5-5-----12-12-12---9           ----------------|
A--0-0-0-0-0----5-5-5-5-5-----12-12-12---7 4times then --7--5--4--2--|
E--0-0-0-0-0----5-5-0-5-0-----12-12-12-------------------------------|
  pm........                  .....


solo
E----------------------------------------------------------------|
B----------------3-----------------------------------------------|
G-----------------2----------------------------------------------|
D------------9--------4\11---------------9\7---------------------|
A------------7-------------7--5--4--2----------------------------|
E--0-0-------0-0-------------------------------------5--3--2--0--|
  pm...

outro
right after "nigga please wrest my meat cleaver free"
E----------------------------------------------------12-|
B--------------------------------------------------9----|
G------------------------------------------------5------|
D------------9-----------------------------------5------|
A------------7-----------------5--3--2--0------3--------|
E--0-0-0-0-0----0-0-0-0-0------5--3--2--0-----6---------|
  pm........    .........      ..........


song order
intro 2x
verse 4x
bridge 1x
chorus 5x
verse 4x
solo 2x
bridge 1x
chorus 5x
outro 3x
Comments