Misc Unsigned Bands - Point Zero - Who Cares Chords & Tabs

 

Point Zero - Who Cares Chords & Tabs

Misc Unsigned Bands Chords & Tabs

Version: 1 Type: Tab 0 ratings
1 star 2 stars 3 stars 4 stars 5 stars
comments

Point Zero - Who Cares Tab

   
-------------------------------------------------------------------------------
This is a new band just starting out.  There really good.  I think that you will enjoy this song.
			     "Who Cares"- Point Zero
-------------------------------------------------------------------------------
Tabbed by: Weston 
Email:wcs326@aol.com

Tuning:
Repear Verse 1, 2, and 3, 2 times
Verse 1
e|---------------------------------------------------------------------------|
B|--------------------------------------0------------------------------------|
G|--------2-------------0-------------2-----0---------------------0----------|
D|-----2-----0------2------0-------2----------------------0----------0-------|
A|--0------------2-----------------------------------2-----------------0-----|
E|-----------------------------------------------3---------------------------|

Verse 2
e|---------------------------------------------------------------------------|
B|-------------------0------------------------------0------------------------|
G|---------------2-------2-----------------------0------0--------------------|
D|-----------2--------------2----------------2-------------2-----------------|
A|---0---0---------------------0--------2---------------------2--------------|
E|---------------------------------------------------------------------------|

e|---------------------------------------------------------------------------|
B|---------------------1-----------------------------------------------------|
G|----------------0-------0----------------------0---------------------------|
D|-----------2----------------2---------------0-----0------------------------|
A|-------3-----------------------3--------2------------2---------------------|
E|-----------------------------------3-------------------3-------------------|
[ Tab from: http://www.guitartabs.cc/tabs/m/misc_unsigned_bands/point_zero_who_cares_tab.html ]
e|---------------------------------------------------------------------------|
B|---------------------------------------------------------------------------|
G|--2--2---2--2-2-2-2--2--0---0-0--0-0-0-0-0---0-0--0-0-0-0-0--0---0---------|
D|--2--2---2--2-2-2-2--2--0---2-2--2-2-2-2-2---0-2--2-2-2-2-2--2---0---------|
A|--0--0---0--0-0-0-0--0--0---2-2--2-2-2-2-2---2/3--3-3-3-3-3--3---0---------|
E|---------------------------------------------------------------------------|

e|---------------------------------------------------------------------------|
B|---------------------------------------------------------------------------|
G|---------------------------------------------------------------------------|
D|--0-0-0-0-0-0-0-0----------------------------------------------------------|
A|--2-2-2-2-2-2-2-2 ---------------------------------------------------------|
E|--3-3-3-3-3-3-3-3----------------------------------------------------------|
verse 3
e|---------------------------------------------------------------------------|
B|---0-0-0-0-0-0-0---0----0-0-0-0-0-0-0----0--1-1-1-1-1-1-1---0--------------|
G|---2-2-2-2-2-2-2---0----0-0-0-0-0-0-0----0--0-0-0-0-0-0-0---0--------------|
D|---2-2-2-2-2-2-2---0----2-2-2-2-2-2-2----0--2-2-2-2-2-2-2---0--------------|
A|---0-0-0-0-0-0-0---0----2-2-2-2-2-2-2----0--3-3-3-3-3-3-3---0--------------|
E|-------------------------------------------------------------------|

e|---------------------------------------------------------------------------|
B|---------------------------------------------------------------------------|
G|--0-0-0-0-0-0--------------------------------------------------------------|
D|--0-0-0-0-0-0--------------------------------------------------------------|
A|--2-2-2-2-2-2--------------------------------------------------------------|
E|--3-3-3-3-3-3--------------------------------------------------------------|

e|---------------------------------------------------------------------------|
B|---------------------------------------------------------------------------|
G|---------------------------------------------------------------------------|
D|---------------------------------------------------------------------------|
A|---------------------------------------------------------------------------|
E|---------------------------------------------------------------------------|


| /  slide up
| \  slide down
| h  hammer-on
| p  pull-off
| ~  vibrato
| +  harmonic
| x  Mute note
===============================================================================
Comments