Misc Unsigned Bands - Penta - We Plead Insanity Chords & Tabs

 

Penta - We Plead Insanity Chords & Tabs

Misc Unsigned Bands Chords & Tabs

Version: 1 Type: Tab 0 ratings
1 star 2 stars 3 stars 4 stars 5 stars
comments

Penta - We Plead Insanity Tab

-------------------------------------------------------------------------------
                            We Plead Insanity - Penta
-------------------------------------------------------------------------------
Penta is an up and coming band from the Albuquerque, New Mexico
Tabbed by:Bass Zapatista

Email:noneofyourbusiness@bugoff.com
[ Tab from: http://www.guitartabs.cc/tabs/m/misc_unsigned_bands/penta_we_plead_insanity_tab.html ]
Tuning:Standard EADGBe
		
	Intro/Outro(clean) x2
e|----------------------------|
B|-----------3----------------|
G|-----5---3-------3----------|  
D|---5---1-------3-------3----|
A|-3-----------1-------3------|
E|-------------------1--------|
						
					Verse(distorted) x2
e|--------------------------------------------------------------------|
B|------------------3-3-3-3-3-3-3-3-----------------------------------|
G|--5-5-5-5-5-5-5-5-3-3-3-3-3-3-3-3-3-3-3-3-3-3-3-3-------------------|
D|--5-5-5-5-5-5-5-5-1-1-1-1-1-1-1-1-3-3-3-3-3-3-3-3-3-3-3-3-3-3-3-3---|
A|--3-3-3-3-3-3-3-3-----------------1-1-1-1-1-1-1-1-3-3-3-3-3-3-3-3---|
E|--------------------------------------------------1-1-1-1-1-1-1-1---|
						
		Pre-Chorus(distorted) x2
e|------------------------------------------|
B|------------3--33-33--5--55-55--88--------|
G|--5--55-55--3--33-33--5--55-55--88--88----|
D|--5--55-55--1--11-11--3--33-33--66--88----|
A|--3--33-33--------------------------66----|
E|------------------------------------------|
			
					Chorus 
e|------------------------------------|     |-------------------------|
B|------333-----333------888-----888--|     |-------3-3-3-------8-8-8-|
G|--333-333-333-333--888-888-888-888--| x2  |--333--3-3-3--888--8-8-8-| x1
D|--333-111-333-111--888-666-888-666--|     |--333--1-1-1--888--6-6-6-|
A|--111-----111------666-----666------|     |--111---------666--------|
E|------------------------------------|     |-------------------------|

I'm looking for bass tabs to Unwritten Law's Up All Night
If anybody has any, PLEASE post them!
Comments