Misc Unsigned Bands - Pagan Scriptures - Teach You Chords & Tabs

 

Pagan Scriptures - Teach You Chords & Tabs

Misc Unsigned Bands Chords & Tabs

Version: 1 Type: Tab 0 ratings
1 star 2 stars 3 stars 4 stars 5 stars
comments

Pagan Scriptures - Teach You Tab

Pagan scriptures is my band from st.thomas ontario canada. we are currently
working on an album entitled "hate love the devil" we are still working on our
web page which should be functional starting around april 2003.

-------------------------------------------------------------------------
-------------------------------------------------------------------------
-------------------------------------------------------------------------
-------------------------------------------------------------------------
--4--7--4--7--4--7--4--7--4--7--6--7\--4--7--4--7--4--7--4--7--4--7--6--7\
--4--5--4--5--4--5--4--5--4--5--4--5\--4--5--4--5--4--5--4--5--4--5--4--7\

that is played as the intro, twice, and as fast as possible. and it is
played during the chorus.
[ Tab from: http://www.guitartabs.cc/tabs/m/misc_unsigned_bands/pagan_scriptures_teach_you_tab.html ]
------------------------------------------------------------------------
-------------------------------------------------------------------5----
-----------------------------------------------------------------6---7--
-----------------------------------------------------------------------5/-this note lasts
-4--7--2-----/--4--7--2-----/----2---2---8h10h---4-4-4-4-4-4-4-4-------3/ for a while
-4--5--0-----/--4--5--0-----/--0---0---3---------2-2-2-2-2-2-2-2--------/

the solo is played in 4/4 time with a mute between every note in the first two
bars and in the rest of the bars the 2nd and 4th notes are hit harder

--10--11--12----14----12----12----12----12----15----11----10----14
-------------13-12-13----13----13-00-13----13-13------------------
-------------11-------------------10-------------------12----12---
------------------------------------------------------------------
------------------------------------------------------------------
------------------------------------------------------------------

--11--13h--11--13h--11--13h--11--14h--11--14h--11--14h--11--15h11p
------------------------------------------------------------------
------------------------------------------------------------------
------------------------------------------------------------------
------------------------------------------------------------------
------------------------------------------------------------------

repeat intro.. end.
Comments