Misc Unsigned Bands - Our Last Night - Tear Her I Will Be Revenged Chords & Tabs

 

Our Last Night - Tear Her I Will Be Revenged Chords & Tabs

Misc Unsigned Bands Chords & Tabs

Version: 1 Type: Tab

Our Last Night - Tear Her I Will Be Revenged Tab

ok so this is the right version i talked to OLN's lead singer and he made corections, 
not that much diferent but harder.


OLN-Tear Her I Will Be Revenged


e|------------------------------------|
B|------------------------------------|
G|--0--------0----0-----0-------------|
D|----4-----4----4--4-4---------------|
A|-----2h5-----------5----------------|
E|0-----------------------------------|
[ Tab from: http://www.guitartabs.cc/tabs/m/misc_unsigned_bands/our_last_night_tear_her_i_will_be_revenged_tab.html ]
e|------------------------------------|
B|------3-------------3---------------|
G|--0----0--------0---0-0-------------|
D|----4----4-   -----4---4------------|
A|3----------3--3---------------------|
E|------------------------------------|

e|------------------------------------|
B|------3-------------3---------------|
G|--0----0--------0---0-0-------------|
D|----4----4--------4---4-------------|
A|5----------2--2---------------------|
E|------------------------------------|

okay well yeah my AIM sn is bullets as words so im me if you have comments or questions, 
please rate this tab i want to know truthfully.

thank you, Jack