Misc Unsigned Bands - Off Season - Untitled Chords & Tabs

 

Off Season - Untitled Chords & Tabs

Misc Unsigned Bands Chords & Tabs

Version: 1 Type: Tab 0 ratings
1 star 2 stars 3 stars 4 stars 5 stars
comments

Off Season - Untitled Tab

The Off-Season - Untitled
Submitted by Varay Porter (aka Y_Do_YoU_CaRe?) Fenderstrat389@aol.com
Intro x4
e|----------------------------------------------------------------
B|----------------------------------------------------------------
G|--14--15--17--15--14-14-----------------------------------------
D|00--00--00--00--00--------14--15--17--15--14-14-----------------
A|------------------------00--00--00--00--00----------------------
D|----------------------------------------------------------------
  **  **  **  **  **      **  **  **  **  **
Fill x2
e|----------------------------------------------------------------
B|----------------------------------------------------------------
G|7777777777777777-1515151515151515-1414141414141414--------------
D|xxxxxxxxxxxxxxxx-xxxxxxxxxxxxxxxx-xxxxxxxxxxxxxxxx--------------
A|5555555555555555-1313131313131313-1212121212121212--------------
D|----------------------------------------------------------------

e|----------------------------------------------------------------
B|----------------------------------------------------------------
G|7777777777777777-10101010101010101010-55555555555---------------
D|xxxxxxxxxxxxxxxx-xxxxxxxxxxxxxxxxxxxx-xxxxxxxxxxx---------------
A|5555555555555555-88888888888888888888-33333333333---------------
D|----------------------------------------------------------------

Verse x4
e|---------------------------------------------------------------------
B|---------------------------------------------------------------------
G|---------------------------------------------------------------------
D|0000000000000000-8888888888888888-3333333333333333-7777777777777777--
A|0000000000000000-8888888888888888-3333333333333333-7777777777777777--
D|0000000000000000-8888888888888888-3333333333333333-7777777777777777--
  **************** **************** **************** ****************

Chorus x2
e|----------------------------------------------------------------
B|----------------------------------------------------------------
G|7777777777777777-1515151515151515-1414141414141414--------------
D|xxxxxxxxxxxxxxxx-xxxxxxxxxxxxxxxx-xxxxxxxxxxxxxxxx--------------
A|5555555555555555-1313131313131313-1212121212121212--------------
D|----------------------------------------------------------------

e|----------------------------------------------------------------
B|----------------------------------------------------------------
G|7777777777777777-1010101010101010-55555555555-------------------
D|xxxxxxxxxxxxxxxx-xxxxxxxxxxxxxxxx-xxxxxxxxxxx-------------------
A|5555555555555555-8888888888888888-33333333333-------------------
D|----------------------------------------------------------------
[ Tab from: http://www.guitartabs.cc/tabs/m/misc_unsigned_bands/off_season_untitled_tab.html ]
Breakdown
e|-----------------------------------------------------------------
B|-----------------------------------------------------------------
G|-----------------------------777777777777777777777777777777777777
D|0~~~~--8~~~~--5~~~~--7~~~~---xxxxxxxxxxxxxxxxxxxxxxxxxxxxxxxxxxxx
A|0~~~~--8~~~~--5~~~~--7~~~~---555555555555555555555555555555555555
D|0~~~~--8~~~~--5~~~~--7~~~~---------------------------------------

Solo

E|-------------------------------------------------------------------
B|-------------------------------------------------------------------
G|14~-14h15-15-17-15-14h15p14--------14h15p14------------------------
D|---------------------------17-17-17--------15-15-15----------------
A|-------------------------------------------------------------------
D|-------------------------------------------------------------------

e|-----------------------------12/10-8-------------12/10-8-----------
B|-------------------------------------10~-10-10-10---------8~-8-8-8
G|14~-14h15-15-17-19-21~-21/22---------------------------------------
D|-------------------------------------------------------------------
A|-------------------------------------------------------------------
D|-------------------------------------------------------------------

e|12/10-8-----8----------12/10-8---------------12/10-8------------
B|--------10~---8~-8h10----------10~-10-10-10----------8~-8-8-8---
G|----------------------------------------------------------------
D|----------------------------------------------------------------
A|----------------------------------------------------------------
D|----------------------------------------------------------------

e|12/10-8----8--15~~~---13~~~-------------------------------------
B|--------10------------------------------------------------------
G|----------------------------------------------------------------
D|----------------------------------------------------------------
A|----------------------------------------------------------------
D|----------------------------------------------------------------

Ending 
e|----------------------------------------------------------------
B|----------------------------------------------------------------
G|----------------------------------------------------------------
D|0000-0-3333-3-7777-7-8888-8--0000-0-3333-3-7777-7-8888-8--------
A|0000-0-3333-3-7777-7-8888-8--0000-0-3333-3-7777-7-8888-8--------
D|0000-0-3333-3-7777-7-8888-8--0000-0-3333-3-7777-7-8888-8--------
  **** * **** * **** * **** *  **** * **** * **** * **** *
e|----------------------------------------------------------------
B|----------------------------------------------------------------
G|----------------------------------------------------------------
D|0000-0-3333-3-7777-7-8888-8--0000-0-3333-3-7777-7-8888-8--------
A|0000-0-3333-3-7777-7-8888-8--0000-0-3333-3-7777-7-8888-8--------
D|0000-0-3333-3-7777-7-8888-8--0000-0-3333-3-7777-7-8888-8--------
  **** * **** * **** * **** *  **** * **** * **** * **** *
e|----------------------------------------------------------------
B|----------------------------------------------------------------
G|-------------------------------------------------------------7~~
D|-------------------------------------------------------------7~~
A|5~-5/7-8~-10-8--5~-5/7-3~-3-3/5-5~-5/7-8~-10-8-5~-5/7-3~-3-3/5~~
D|----------------------------------------------------------------
Comments