Misc Unsigned Bands - Nurl - Paranoia Chords & Tabs

 

Nurl - Paranoia Chords & Tabs

Misc Unsigned Bands Chords & Tabs

Version: 1 Type: Bass Tab 0 ratings
1 star 2 stars 3 stars 4 stars 5 stars
comments

Nurl - Paranoia Bass Tab

This is a song by an as yet unsigned punk band from south london in England. They are 
by everyone from Queen to the Sex Pistols.

g-------------|  Play this bit 4 times
d-------------|
a-0--3-0-0----|
e----------0--|

then play
[ Tab from: http://www.guitartabs.cc/tabs/m/misc_unsigned_bands/nurl_paranoia_btab.html ]
g--------------|   Play this bit twice
d-0--3-0-0-----|
a---------0----|
e--------------|

then play nest bit twice

g------------|
d------------|
a-0--3-0-0---|
e----------0-|

The finally, for each verse, play

g-----------------------------|
d-2---0-----------------------|
a---------0--3-0-0------------|
e------------------0--0-0-0-0-|

These tabs are the same for all verses and the guitar solo!
Comments