Misc Unsigned Bands - Nothing So Far - Nothing So Far Chords & Tabs

 

Nothing So Far - Nothing So Far Chords & Tabs

Misc Unsigned Bands Chords & Tabs

Version: 1 Type: Tab 0 ratings
1 star 2 stars 3 stars 4 stars 5 stars
comments

Nothing So Far - Nothing So Far Tab

   
Band: Nothing So Far
Tabbed By: Eric Nowrouzi

This is my band. We're a local band from edmond.
If you'd like you can visit our site at www.angelfire.com/emo/nothingsofar




1. The Perfect Song:

Intro:  E  C# B (x3) /  A   B 

Verse:  E  C# B  E  A B (x4) /  A  B

Chorus:  E  A B  E C# (x2) /  E  B  A  B

Bridge:  E D# C# B (x2) /  E F# G# A (x2)




2. Queen of Hearts:

Intro:

e|--xx--------------xx--------------xx--------------xx-----------|
B|--xx--------------xx--------------xx--------------xx-----------|
G|7-xx-7------------xx--------------xx--------------xx-----------|
D|7-xx-7--7-5-4---7-xx-7----------5-xx-5----------7-xx-7---------|
A|5-xx-5--------7-7-xx-7--9-7-6-4-5-xx-5--5-4-2-4-7-xx-7-7-5-4-5-|
E|--xx------------5-xx-5----------3-xx-3----------5-xx-5---------|

Verse:  D A G A

Chorus:  G A D B / G A D E F# G / D E F# G (x2)

Bridge:

e|--xx---xxxxxxxx---xx---xxxxxxxx---xx---xxxxxxxxx---xx---xxxxxxxx|
B|--xx---xxxxxxxx---xx---xxxxxxxx---xx---xxxxxxxxx---xx---xxxxxxxx|
G|7-xx-7-xxxxxxxx---xx---xxxxxxxx---xx---xxxxxxxxx---xx---xxxxxxxx|
D|7-xx-7-xxxxxxxx-7-xx-7-xxxxxxxx-5-xx-5-xxxxxxxxx-7-xx-7-xxxxxxxx|
A|5-xx-5-xxxxxxxx-7-xx-7-xxxxxxxx-5-xx-5-xxxxxxxxx-7-xx-7-xxxxxxxx|
E|--xx---xxxxxxxx-5-xx-5-xxxxxxxx-3-xx-3-xxxxxxxxx-5-xx-5-xxxxxxxx|

Bridge Part 2:  B G D A





3. Flunking Out:

Intro:  
[ Tab from: http://www.guitartabs.cc/tabs/m/misc_unsigned_bands/nothing_so_far_nothing_so_far_tab.html ]
e|-----------------------------------------------------------------------------|
B|-----------------------------------------------------------------------------|
G|------------------------------15---------------------------------------------|
D|---------------------15-15-15----17-15---------------------------------------|
A|15-15-15-15-17-15----------------------15-15-15-15-17-15---------------------|
E|------------------17-------------------------------------17-15-15-15-15-17-15|

Verse:  C F G F

Chorus:  C G A F

Bridge:  A# F G D#




4. A Loser Like Me:

Intro:  C G A F

Verse/Bridge:  C G A G

Chorus:  F G C A 




5. Bad Karma: 

Intro:

e|--------------|
B|--------------|
G|--9-----------|
D|-9-9-10-9-7-9-| (x4)
A|9-------------|
E|--------------|

Verse:  E  C B 

Chorus:  E C B C D E 

Bridge:  B C D E




6. All I Know:

Intro:  D C# B A (x3)/ F# A B C# A

Verse:  A B F# E

Chorus:  D        B      G A B C BC  A

Solo:

e|-----------------------------------------|
B|-----------------------------------------|
G|7-7-7-7-7-7-7-6--6--4-4-4-4-4-4-5-7-5-4--|
D|---------------7--7--------------------5-|
A|-----------------------------------------|
E|-----------------------------------------|

e|---------------------------------------|
B|---------------------------------------|
G|-----------------4-----------------4-6-|
D|5-5-5-5-5-5-4-5-7---7-7-7-7-7-7-6-7----|
A|---------------------------------------|
E|---------------------------------------|




7. Gone Again:

The whole song is E C D C over & over
Comments