Misc Unsigned Bands - Northern Swagger - Overdrive Chords & Tabs

 

Northern Swagger - Overdrive Chords & Tabs

Misc Unsigned Bands Chords & Tabs

Version: 1 Type: Tab 0 ratings
1 star 2 stars 3 stars 4 stars 5 stars
comments

Northern Swagger - Overdrive Tab

Overdrive
Bass intro
e|---------------------------------------------------------------------------|
B|---------------------------------------------------------------------------|
G|---------------------------------------------------------------------------|
D|---------------------------------------------------------------------------|
A|---------------3-0---------------------------------------------------------|
E|-0-0-0 0-3-0---------------------------------------------------------------|
Verse (light distortion)
e|---------------------------------------------------------------------------|
B|---------------------------------------------------------------------------|
G|-2---2--------------0---0-------0---0--------------------------------------|
D|-2-----2---2----2---0---2--2------2----2-----------------------------------|
A|-0-------0-2----2---2------2-----------------------------------------------|
E|-----------0--0-----3------0-----------------------------------------------|
Chorus
e|------------------3--3-----------------------------------------------------|
B|-1---1------------3--------3-----------------------------------------------|
G|-2-2--2-----------0------------0---------0---0-----------------------------|
D|-2--2---2-2---2---0----------------2-------2---2---------------------------|
A|-0---0----2-2---2-x----------------2-2-------------------------------------|
E|----------0-------3-----3-----3----0---2-----------------------------------|
Second Chorus (heavy dist.)
e|---------------------------------------------------------------------------|
B|---------------------------------------------------------------------------|
G|-------------------------repeat--------------------------------------------|
D|---------5-2-------7--5----------------------------------------------------|
A|---------5-x-------7--5----------------------------------------------------|
E|-0-0-0-0-3-0--0-0--5--3----------------------------------------------------|
Riff (fast)
e|---------------------------------------------------------------------------|
B|---------------------------------------------------------------------------|
G|---------------------------------------------------------------------------|
D|------------------------------------------x2-------------------------------|
A|---------------------------------------------------------------------------|
E|-0-000-0h2p0-00-0h3p0-0-000-0h2p0-00-0h3p0---0-000-0h2-0h3p0---------------|
Solo
e|---------------------------------------------------------------------------|
B|-15p12"15p12----------------15p12"16p13"16p13"17p14---19p16--19-22b|
G|------14----14----14b16b16-------14----15----16----17------19--------------|
D|------------xlots----------------------------------------------------------|
A|---------------------------------------------------------------------------|
E|---------------------------------------------------------------------------|

e|----7-10-------9-12---------------9h12p9-----------------------------------|
B|---8----8----10----10-----------10-------10--------------------------------|
G|--9------7-11--------9--------11-----------11------------------------------|
D|-----x2----------x2---------11---------------x-----------------------------|
A|------------------------9h12------------------x----------------------------|
E|-----------------------------------------------x---------------------------|

e|---------------------------------------------------------------------------|
B|---------------------------------------------------------------------------|
G|--7h9p7-5h7p5-3h5p3--------------------------------------------------------|
D|-------9-----7-----5-7h9p7"5h7p5-----------------------------------------|
A|--------------------------7-----7"7//////--------------------------------|
E|---------------------------------------------------------------------------|
Final Chorus
e|---------------------------------------------------------------------------|
B|---------------------------------------------------------------------------|
G|---------------------------------------------------------------------------|
D|---------------------------------------------------------------------------|
A|-----------------------------------repeat----------------------------------|
E|-0h2p0-0-0h3p0-000-000-0h2p0-0h3p0-----------------------------------------|
2nd part
e|---------------------------------------------------------------------------|
B|---------------------------------------------------------------------------|
G|---------------------------------------------------------------------------|
D|---------------------------------------------------------------------------|
A|---------------------------------------------------------------------------|
E|-3h5p3-3-3h6p3-333-333-3h5p3-3h6p3-----------------------------------------|
End
e|---------------------------------------------------------------------------|
B|---------------------------------------------------------------------------|
G|---------------------------------------------------------------------------|
D|-------2-----2-------0h2---------------------------------------------------|
A|-------2-----2-------0h2---------------------------------------------------|
E|-0-000-0-000-0-000-0-0-----------------------------------------------------|
[ Tab from: http://www.guitartabs.cc/tabs/m/misc_unsigned_bands/northern_swagger_overdrive_tab.html ]
Comments