Misc Unsigned Bands - Natural Effect - Sheol Chords & Tabs

 

Natural Effect - Sheol Chords & Tabs

Misc Unsigned Bands Chords & Tabs

Version: 1 Type: Tab 0 ratings
1 star 2 stars 3 stars 4 stars 5 stars
comments

Natural Effect - Sheol Tab

   
new artist
Natural Effect
Sheol
Tuning:B F# B E G# C#
()= palm mute


Verse (Guitar 1 Acustic)
-------------------------------------------------|
----0-----0-----0-----1-0------------------------|
---9-----5-----2-----2---------------------------|
--7-----3-----0-----0----------------------------|
-0-----0-----0-----0-----------------------------|
-------------------------------------------------|

Verse (guitar 2 Distorted)
--------------------------------------------------|
--------------------------------------------------|
--------------------------------------------------|
-(77777777-33333333-0000000000000000)-------------|
-(77777777-33333333-0000000000000000)-------------|
-(77777777-33333333-0000000000000000)-------------|

Bridge X3 (Guitar 1 Acustic)
--------------------------------------------------|
-00000000--66666666--0001111100011111-------------|
-99999999--55555555--2222222222222222-------------|
-77777777--33333333--0000000000000000-------------|
-00000000--00000000--0000000000000000-------------|
--------------------------------------------------|

Bridge X3 (Guitar 2 Distorted)
--------------------------------------------------|
-----------66666666-------------------------------|
-99999999--55555555-0002222200022222--------------|
-77777777--33333333-0000000000000000--------------|
-77777777--33333333-0000000000000000--------------|
-77777777--33333333-0000000000000000--------------|
[ Tab from: http://www.guitartabs.cc/tabs/m/misc_unsigned_bands/natural_effect_sheol_tab.html ]
Bridge Cont. X1 (Guitar 1)
-----------------------------------------------------------------------|
-----------------------------------------------------------------------|
-99999999--1212121212121212--1414141414141414--1717171717171717--------|
-77777777--9-9-9-9-9-9-9-9---1212121212121212--1414141414141414--------|
-00000000--0-0-0-0-0-0-0-0---0-0-0-0-0-0-0-0---0-0-0-0-0-0-0-0---------|
-----------------------------------------------------------------------|

Bridge Cont. X1 (Guitar 2)
-------------------------------------------------------------------------|
-------------------------------------------------------------------------|
-99999999--1212121212121212--1414141414141414--1717171717171717----------|
-77777777--1010101010101010--1212121212121212--1515151515151515----------|
-77777777--1010101010101010--1212121212121212--1515151515151515----------|
-77777777--1010101010101010--1212121212121212--1515151515151515----------|

PreChorus (Guitar 1)
------------------------------------------|
------------------------------------------|
-777--------------------------------------|
-555--777777(7777777)---------------------|
-000--777777(7777777)---------------------|
------777777(7777777)---------------------|

PreChorus (Guitar 2)
-------------------------------------------------------------|
--------------------3-5-6-5---------------------3-5-6-8------|
-777------------4-5----------777------------4-5--------------|
-555--7777--5-7--------------555--7777--5-7------------------|
-000--7777-------------------000--7777-----------------------|
------7777------------------------7777-----------------------|

Chorus (Guitar 1)
--------------------------------------------------|
--------------------------------------------------|
-777----------------------------------------------|
-555--7777--5555--1010101010----------------------|
-000--7777--5555--1010101010----------------------|
------7777--5555--1010101010----------------------|

Chorus (Guitar 2) Same as PreChorus
Comments